Song name
# A B C D E F G H I J K L M N O P Q R S T U V W X Y Z

Switchfoot - New Way To Be Human chords

Highlighted       Show chord diagrams
==================================================================================================
Song: New Way to Be Human
Artist: Switchfoot
Album: New Way to Be Human
==================================================================================================
You can play C6 as [ch]C5add11[/ch] (i.e. C6 without the E note).
It's easier to tab the chorus, so it's tabbed; if you want chord names they are appended 
at the end of the song.
==================================================================================================

Riff (R)
e|-------|
B|-------|
G|-------|
D|-------|
A|0-1-2--|
E|-------|
*I'm not sure, but I think you can play with hammer-ons.

Intro:
E5 PM (x3) R
E5 G5 C6 R (x4)

Verse 1:
Em     G5             C6      R
  Everyday it's the same thing
Em        G5           C6 R
  Another trend has begun
 Em G5    C6         R         Em G5 C6 R
Hey kids, this might be the one

Verse 2:
Em       G5         C6
  It's a race to be noticed
Em         G5         C6
  And it's leaving us numb
 Em G5    C6       R          Em G5 C6 R
Hey kids, we can't be the ones

Prechorus 1:
C               F
 With all of our fashion
Am              F
  We're still incomplete
C             F
 The God of redemption
Am                  Ebmaj7
  Could break our routine

Chorus 1:
*"+" marks the start of each bar.

e|-------------------------------|
B|-------------------------------|
G|------------------5-5----------|
D|7\6/7-----3-3-----5-5-----5-5-6|
A|7\6/7-----3-3-----3-3-----5-5-6|
E|5\4/5-----1-1-------------3-3-4|  (x3)
           +
There's a new way to be human
+
 It's nothing we've ever been
           +
There's a new way to be human

e|-------------------------------|
B|-------------------------------|
G|----------------5---5----------|
D|7\6/7-----3-3---5---5----------|
A|7\6/7-----3-3---3---3-----0-1-2|
E|5\4/5-----1-1------------------|
 +
New way to be human

Interlude: E5 G5 C6 R (x2)

Verse 2:
      Em         G5    C6    R
And where is our inspiration?
Em             G6         C6  R
  When all the heroes are gone
 Em G5    C6       R           Em G5 C6 R
Hey kids, could we be the ones?

Prechorus 2:
C               F
 'Cause nobody's famous
Am            F
  And nobody's fine
C            F
 We all need forgiveness
Am               Ebmaj7
  We're longing inside

Chorus 2:
e|-------------------------------|
B|-------------------------------|
G|------------------5-5----------|
D|7\6/7-----3-3-----5-5-----5-5-6|
A|7\6/7-----3-3-----3-3-----5-5-6|
E|5\4/5-----1-1-------------3-3-4|  (x3)
           +
There's a new way to be human
+
 It's nothing we've ever been
           +
There's a new way to be human

e|-------------------------------|
B|-------------------------------|
G|----------------5---5----------|
D|7\6/7-----3-3---5---5---5---5-6|
A|7\6/7-----3-3---3---3---5---5-6|
E|5\4/5-----1-1-----------3---3-4|
+
 It's spreading under my skin

e|-------------------------------|
B|-------------------------------|
G|------------------5-5----------|
D|7\6/7-----3-3-----5-5-----5-5-6|
A|7\6/7-----3-3-----3-3-----5-5-6|
E|5\4/5-----1-1-------------3-3-4|  (x3)
           +
There's a new way to be human
+
 Where divinity blends
        +
With a new way to be human

e|-------------------------------|
B|-------------------------------|
G|----------------5---5---5---5--|
D|7\6/7-----3-3---5---5---5---5--|
A|7\6/7-----3-3---3---3---3---3--|
E|5\4/5-----1-1------------------|
 +
New way to be human

Bridge:
D5                     (E5)
  You're throwing your love across
 (F5)
my impossible space
D5         (E5)
  You've created me
  F5           G5
Take me out of me into...

Lead-in:
   A5  F5        C5  G5 A5 F5 
C5 G5
A new way to be human
      A5  F5        C5  G5 A5 F5 
C5 G5
To a new way to be human

Chorus (Final):
e|-------------------------------|
B|-------------------------------|
G|------------------5-5----------|
D|7\6/7-----3-3-----5-5-----5-5-6|
A|7\6/7-----3-3-----3-3-----5-5-6|
E|5\4/5-----1-1-------------3-3-4| (x8)
          +
You're a new way to be human
+
 Where my humanity bends
      +
To a new way to be human
+
 Redemption begins
          +
You're a new way to be human
          +
You're a new way to be human
            +
You're the only way to be human
          +
You're a new way to be human

Outro:
e|-------|
B|-------|
G|-------|
D|7\6/7--|
A|7\6/7--|
E|5\4/5--| and fade out



--------------------------------------------------------------------------------------------------
CHORDS:
  A5  Ab5 F5  C5  G5
e|-------------------|
B|-------------------|
G|------------5------|
D|7---6---3---5---5--|
A|7---6---3---3---5--|
E|5---4---1-------3--|
---------------------|
Tap to rate this tab
# A B C D E F G H I J K L M N O P Q R S T U V W X Y Z