Song name
# A B C D E F G H I J K L M N O P Q R S T U V W X Y Z

Switchfoot - This Is Your Life chords

Highlighted       Show chord diagrams
This is your life - Switchfoot

Intro:
E|---------------|-----------|
B|---------------|-----------|
G|---------------|-----------|
D|---------------|---6-------|
A|-4--4-7-4-4-7-|4-4-2------|
E|--4------4----|-5---------|

Couplet
C#                                  A
Yesterday is a wrinkle on your forehead
C#                                    A
Yesterday is a promise that you've broken
B                 C#    B                C#
Don't close your eyes, don't close your eyes
C#                                                A
This is your life and today is all you've got now
      C#                             A
Yeah, and today is all you'll ever have

Prechorus
B                 C#
Don't close your eyes
B                 C#
Don't close your eyes

Chorus
               E            B              A2
This is your life, are you who you want to be
               E            B              A2
This is your life, are you who you want to be
               E            B              A2   
This is your life, is it everything you dreamed that it would be
                      E                     B             C#          A
When the world was younger and you had everything to lose


Yesterday is a kid in the corner
Yesterday is dead and over

Chords to use:
    C#    A     B     E     A2
e|--0--|--0--|--0--|--0--|--0--|
B|--0--|--0--|--0--|--0--|--0--|
G|--6--|--6--|--4--|--1--|--2--|
D|--6--|--7--|--4--|--2--|--2--|
A|--4--|--7--|--2--|--2--|--0--|
E|--x--|--5--|--0--|--0--|--x--|
Tap to rate this tab
# A B C D E F G H I J K L M N O P Q R S T U V W X Y Z