Song name
# A B C D E F G H I J K L M N O P Q R S T U V W X Y Z

Switchfoot - On Fire tab

Tabbed by: Josh Daley

Tuning: E A D G C G



Intro & Verse:

-------------------------------------------------------|
--0--------2---0----------0--------0---0-----------0---|
---------5-------------2---------4-------------0-------|
-------5------------0----------2-----------------------|
-----3-----------------------0--------------3----------|
------------------3-----------------------1------------|



Verse, Pre-chrous & Chorus:

--0----0----0----0----|
--0----2----0----0----|
--4----4----4----2----|
--2----0----2----3----|
--3----0----0----3----|
-------3---------1----|

After second chorus, straight to bridge.



Bridge:

--0----0----0----0----0--------9-5-0----5----0--------0----5---0----|
--0----0----0----0----0-------11-7-0----7-9--0--------0----7-9-2----|
--4----2----4----2----0------------7------9-10----9-5-5------9-2----|
--2----3----2----3----5------------7--------10----9-5-5--------2----|
--0----3----0----3----3------------7--------10--------5--------x----|
-------1---------1----3------------7--------10--------5--------1----|



Outro:

------------------------------------------0--------|
--0--------2---0----------0--------0---0--0--------|
---------5-------------2---------4--------0--------|
-------5------------0----------2----------3--------|
-----3-----------------------0------------3--------|
------------------3-----------------------1--------|
                                          Let Ring
Tap to rate this tab
# A B C D E F G H I J K L M N O P Q R S T U V W X Y Z