Song name
# A B C D E F G H I J K L M N O P Q R S T U V W X Y Z

Switchfoot - Rise Above It tab

-------------------------------------------------------------------------------
                             Rise Above It - Switchfoot
-------------------------------------------------------------------------------
Tabbed by: Sovaso

Tuning: Standard

Intro
     C#                                                        
e|---9--9-9--9--9--9--9-9-9--7---7--9--9-9--9-9--9---9-9-9-9--7-7------------|
B|---9--9-9--9--9--9--9-9-9--7---7--9--9-9--9-9--9---9-9-9-9--7-7------------|   
G|---6--6-6--6--6--6--6-6-6--6---6--6--6-6--6-6--6---6-6-6-6--6-6------------|
D|---------------------------------------------------------------------------|
A|---------------------------------------------------------------------------|
E|---------------------------------------------------------------------------|


Chord Fill                                These are 11's not 1's
e|------------------------|     e|--------------------| 
B|---4-4-4----5-----------|     B|--------------------| 
G|---4-4-4----6-----------|  OR G|--8-8-8--9----------|
D|---4-4-4----6-----------|     D|--9-9-9--11---------| listen to song for 
A|---2-2-2----4-----------|     A|--9-9-9--11---------| Fill Placement
E|------------------------|     E|--7-7-7--9----------|

Play this after fill
Pre Verse
   * * * *   * * * * * *   * * * *   * * * * * * * * * * *
e|---------------------------------------------------------|
B|---------------------------------------------------------|
G|---------------------------------------------------------|
D|---------------------------------------------------------|
A|-9-11-9-9--9-9-9-9-11-9--9-9-9-9---9-9-11-9-9-9-9-9-11-9-|
E|---------------------------------------------------------|
At different parts in the song, It Proves Easier to play the Chord fill on
The E String root, and at other parts its easier to play the fill on the A
String Root. This is Only If you are playing it by yourself, If you're in a
band Guitar 2 covers the chord fill while Guitar 1 Plays the pre Verse.


Verse
e|---9--9-9--9--9--9--9-9-9--7---7--9--9-9--9-9--9---9-9-9-9--7-7--7-7-7-7-7-|
B|---9--9-9--9--9--9--9-9-9--7---7--9--9-9--9-9--9---9-9-9-9--7-7--7-7-7-7-7-|
G|---6--6-6--6--6--6--6-6-6--6---6--6--6-6--6-6--6---6-6-6-6--6-6--4-4-4-4-4-|
D|---------------------------------------------------------------------------|
A|---------------------------------------------------------------------------|
E|---------------------------------------------------------------------------| 
 "Another couple kids with their heads on top..."

e|-7---7-7-7-7--9-9-9---9----------------------------------------------------|
B|-7---7-7-7-7--9-9-9---9----------------------------------------------------|
G|-4---4-4-4-6--6-6-6---6----------------------------------------------------|
D|---------------------------------------------------------------------------|
A|---------------------------------------------------------------------------|
E|---------------------------------------------------------------------------|

"Oh Come On!"

e|---------------------------------------------------------------------------|
B|-9-9--9--9---9---9--9------------------------------------------------------|
G|-9-9--9--9---9---9--9---8-8-8---8--8---8-8--8---8--8-------8------10-------|
D|-9-9--9--9---9---9--9---9-9-9---9--9---9-9--9---9--9-------9------11-------|
A|-7-7--7--7---7---7--7---9-9-9---9--9---9-9--9---9--9-------9------11-------|
E|------------------------7-7-7---7--7---7-7--7---7--7-------7------9--------|  
1."It feels so Typical...... I Guess I'm lookin' for a miracle oh oh oh"
2."I get So Sick of it....It Feels So Counter-----fe--------it 
 
e|----------9--9-9--9-9-9-------9--9-9--9--9--9----------9-9-9---9-9-9-9-9---|
B|----------9--9-9--9-9-9-------9--9-9--9--9--9----------9-9-9---9-9-9-9-9---|
G|----10---------------------------------------------------------------------|
D|----11--------------------11--------------------11-------------------------|
A|----11--------------------11--------------------11-------------------------|
E|----9---------------------9---------------------9--------------------------|
  "Rise Above It, Rise Above It"


Interlude              
                    With some kind of effect (comment below to help me out)  
e|---------------------------------------------------------------------------|
B|---------------------9-9-9---9-9---9-9-9-10-9------------------------------|
G|---------------------9-9-9---9-9---9-9-9-9--9------------------------------|
D|---9-9-9---11--------9-9-9---9-9---9-9-9-11-9------------------------------|
A|---9-9-9---11--------------------------------------------------------------|
E|---7-7-7---9---------------------------------------------------------------|


Bridge ALL PALM MUTED  
e|---------------------------------------------------------------------------|
B|---------------------------------------------------------------------------|
G|---------------------------------------------------------------------------|
D|---7-7-7-7-7-7-7-7-7-9-9-9-9-9-9-9-9-9-9-9-9--11-11-11-11-11-11-11-11-11-11|
A|---7-7-7-7-7-7-7-7-7-9-9-9-9-9-9-9-9-9-9-9-9--11-11-11-11-11-11-11-11-11-11|
E|---5-5-5-5-5-5-5-5-5-7-7-7-7-7-7-7-7-7-7-7-7--9--9--9--9--9--9--9--9--9--9-|    


Outro
e|---------------------------------------------------------------------------|
B|-9-9-9-9-9-9-9-9-----------------------------------------------------------|
G|-9-9-9-9-9-9-9-9-8-8-8-8-8-8-8-8-9--9--9--9--9--9--9--9--9--9--9--9--9-----|
D|-9-9-9-9-9-9-9-9-9-9-9-9-9-9-9-9-11-11-11-11-11-11-11-11-11-11-11-11-11----|
A|-7-7-7-7-7-7-7-7-9-9-9-9-9-9-9-9-11-11-11-11-11-11-11-11-11-11-11-11-11----|
E|-----------------7-7-7-7-7-7-7-7-9--9--9--9--9--9--9--9--9--9--9--9--9-----| 
     "Rise Above it, Lets Rise above it"


                                   Let last Note Ring for as long as possible
e|---------------------------------9~~~~~~~~~~~~~~~~~~~~~~~~~~~~~~~~~--------|
B|-9-9-9-9-9-9-9-9-----------------9~~~~~~~~~~~~~~~~~~~~~~~~~~~~~~~~~--------|
G|-9-9-9-9-9-9-9-9-8-8-8-8-8-8-8-8-9~~~~~~~~~~~~~~~~~~~~~~~~~~~~~~~~~--------|
D|-9-9-9-9-9-9-9-9-9-9-9-9-9-9-9-9-11~~~~~~~~~~~~~~~~~~~~~~~~~~~~~~~~--------|
A|-7-7-7-7-7-7-7-7-9-9-9-9-9-9-9-9-11~~~~~~~~~~~~~~~~~~~~~~~~~~~~~~~~--------|
E|-----------------7-7-7-7-7-7-7-7-9~~~~~~~~~~~~~~~~~~~~~~~~~~~~~~~~~--------|
 "Rise Above it, Lets Rise above it, Yeah!

 
Song Order
Intro                 X2
Pre Verse (With Fill) X1
Verse                 X2
Chorus                X2
Verse                 X2
chorus                X2
Interlude             X2
Bridge                X4
intro                 X2  
Chorus                X2 
Outro                 X1 


************************************

| *   Palm mute
| /   slide up
| \   slide down
| h   hammer-on
| p   pull-off
| ~   vibrato
| +   harmonic
| x   Mute note
| b   Bend
| pb  Pre-bend
| br  Bend release
| pbr Pre-bend release
| brb Bend release bend

************************************
Tap to rate this tab
# A B C D E F G H I J K L M N O P Q R S T U V W X Y Z