Song name
# A B C D E F G H I J K L M N O P Q R S T U V W X Y Z

Switchfoot - Restless tab

Solo - 4:05
E|-------------------------|-------------------------|
B|-12-------12-------12----|-------------------------|
G|----------------------14-|-14-14-14-14-14-13-13-11-|
D|----13-13----13-13-------|-------------------------|
A|-------------------------|-------------------------|
E|-------------------------|-------------------------|

E|-------------------------------|-------------------------|
B|-12-------12-------12s14s12-12-|----------------12s14s12-|
G|-------------------------------|-14-14-14-14-14----------|
D|----13-13----13-13-------------|-------------------------|
A|-------------------------------|-------------------------|
E|-------------------------------|-------------------------|

E|-------------------------|-------------------------|
B|-12-------12-------12----|-------------------------|
G|----------------------14-|-14-14-14-14-14-13-13-11-|
D|----13-13----13-13-------|-------------------------|
A|-------------------------|-------------------------|
E|-------------------------|-------------------------|

E|-------------------------|-------------------------|
B|-12-------12-------12-12-|-12-12-12-12-14-14-14-14-|
G|----------------------x--|-x--x--x--x--x--x--x--x--|
D|----13-13----13-13----9--|-9--9--9--9--11-11-11-11-|
A|-------------------------|-------------------------|
E|-------------------------|-------------------------|

See my other tab for the other lead guitar parts
Tap to rate this tab
# A B C D E F G H I J K L M N O P Q R S T U V W X Y Z