Song name
# A B C D E F G H I J K L M N O P Q R S T U V W X Y Z

Switchfoot - Love Alone Is Worth The Fight tab

Love Alone is Worth the Fight: Solo

This is how to play the solo from Love Alone is Worth the Fight. Drew uses a slide. 
These are 3 different ways to play it. I prefer the 3rd, but they all work. The first one is 
an octave lower. Enjoi :)

e---------------------------------------------------------------------------------------|
B---------------------------------------------------------------------------------------|
G---------------------------------11/--------9-8----------------------------------------|
D--4~/9~~13/8~~11/6~~-----4~/9~~------8~----------6~~-----------------------------------|
A---------------------------------------------------------------------------------------|
E---------------------------------------------------------------------------------------|


e---------------------------------------14/--------12-11--------------------------------|
B--7~/12~~16/11~~14/9~~------7~/12~~------11-------------9~~----------------------------|
G---------------------------------------------------------------------------------------|
D---------------------------------------------------------------------------------------|
A---------------------------------------------------------------------------------------|
E---------------------------------------------------------------------------------------|

e---------------------------------------------------------------------------------------|
B--------------16/11~~14/9~~----------------19/-------17-16----9~~----------------------|
G--11~/16~~--------------------------11~16~~---15~--------------------------------------|
D---------------------------------------------------------------------------------------|
A---------------------------------------------------------------------------------------|
E---------------------------------------------------------------------------------------|
Tap to rate this tab
# A B C D E F G H I J K L M N O P Q R S T U V W X Y Z