Song name
# A B C D E F G H I J K L M N O P Q R S T U V W X Y Z

Switchfoot - Chem 6a tab

Chem 6A

GTR 1 (Lead,Distorted)

 Intro/ Main Riff;
(Play Throughout All Except Chorus, Solo, Start Playing At “I Don't Wanna Change The 
World”,Don't Play On The Outroduction)
e---------------------------------------------------------------------------|
b----0--------0-------------------------------------------------------------|
g------0--------0--------3-0-------2h4p2p0----------------------------------|
d-------------------------------0-0-----------------------------------------|
a----------22---------33----------------------------------------------------|
E--33-----------------------------------------------------------------------|


e-----------------------------------------------------------------------------|
b----0--------0---------------------------------------------------------------|
g------0---------0-------3-0--------------------------------------------------|
d------------------------------0--2b------------------------------------------|
a----------22---------33------------------------------------------------------|
E—33--------------------------------------------------------------------------|

GTR 2(Rythm,Distorted)

Chorus;
(All Chords Are 3 Note Power Chords Except For A7)

Em G Em A7 G Em C G X2

GTR 1

Solo


e---------------------------------------------------------------------------|
b-3b------3h5-------0-------------------------------------------------------|
g--------------------------------0---2-----2h3----0---0h2----0--------------|
d---------------------------------------------------------------------------|
a---------------------------------------------------------------------------|
E---------------------------------------------------------------------------|

e-----------------3--------3--5---5h6-----3-----3h5-------3-----------------|
b-3b---3333--5--------------------------------------------------------------|
g---------------------------------------------------------------------------|
d---------------------------------------------------------------------------|
a---------------------------------------------------------------------------|
E---------------------------------------------------------------------------|

e-3--3--3--3--3--3--3--3--3--3--3----3--5---5h6---3----3h5----3-------------|
b---3--3--3--3--3--3--3--3--3--3--3-----------------------------------------|
g---------------------------------------------------------------------------|
d---------------------------------------------------------------------------|
a---------------------------------------------------------------------------|
E---------------------------------------------------------------------------|
The Rest Is Instructed Throughout The Tab, Thanks!
Tap to rate this tab
# A B C D E F G H I J K L M N O P Q R S T U V W X Y Z