Song name
# A B C D E F G H I J K L M N O P Q R S T U V W X Y Z

Switchfoot - Meant To Live tab

e|--------------------------------------------------------------------|
B|--------------------------------------------------------------------|
G|--------------------------------------------------------------------|
D|-----------4h5-4-----------4h5-4-----------4h5-4----5555----22------|
A|---2-2-2-----------0-0-0----------------------------5555----00------|
E|-----------------------------------2-2-2------------5555------------| x2

e|--------------------------------------------------------------------|
B|--------------------------------------------------------------------|
G|--------------------------------------------------------------------|
D|---4-4-4---4h5-4---2-2-2---4h5-4-----------4h5-4----5555----22------|
A|---2-2-2-----------0-0-0-----------2-2-2------------5555----00------|
E|-----------------------------------2-2-2------------5555------------|

e|--------------------------------------------------------------------|
B|--------------------------------------------------------------------|
G|--------------------------------------------------------------------|
D|---4-4-4---4h5-4---2-2-2---4h5-4-----------4h5-4---020-0-0-5-7------|
A|---2-2-2-----------0-0-0-----------2-2-2-----------020-0-0-5-7------|
E|-----------------------------------2-2-2-----------020-0-0-5-7------|

e|-------------------------|      e|------------------------|
B|-------------------------|      B|------------------------|
G|-------------------------|      G|------------------------|
D|-/4-5p4--2-0-4-0---------|  O:  D|--7-7/8/7-5---7---------|
A|------------------4------|      A|------------8---8-7-5*--|
E|---------------------7*--|      E|------------------------|

e|----------------|
B|----------------|
G|----------------|
D|--55555555--5*--|
A|--55555555--5*--|
E|--55555555--5*--|
Tap to rate this tab
# A B C D E F G H I J K L M N O P Q R S T U V W X Y Z