Song name
# A B C D E F G H I J K L M N O P Q R S T U V W X Y Z

Switchfoot - What It Costs tab

Artist: Switchfoot
Song: What It Costs (Unreleased)
From: Fading West (Movie)

Here is the intro and outro to the song "What It Costs".
I don't think that i'm 100% accurate on this, but this is what i have figured out 
so far, and i think that i'm really close.
If you have an corrections or if you figure out any more of it, please let me know!

Capo on 4th fret

Tuning: Standard

Intro:

e|------------------------------------------------------------------------------|
B|------------------------------------------------------------------------------|
G|------------------------------------------------------------------------------|
D|--9-9-9-9-9-9-9-9--9-9-9-9-9-9-9-9--9-9-9-9-9-9-9-9--11-11-11-11--14-14-14-14-|
A|------------------7-7-7-7-7-7-7-7---------------------------------------------|
E|-0-0-0-0-0-0-0-0-------------------7-7-7-7-7-7-7-7--9--9--9--9--12-12-12-12---|


e|------------------------------------------------------------------------|
B|------------------------------------------------------------------------|
G|------------------------------------------------------------------------|
D|--9-9-9-9-9-9-9-9--9-9-9-9-11-13-13-13-9-9-9-9-13-11-9-9-11-11-11-11-14-|
A|------------------7-7-7-7-7--0--0--0-------------0--0-0-9--9--9--9------|
E|-0-0-0-0-0-0-0-0----------------------7-7-7-7-7-------------------------|


e|-----------------------------------------------------------------|
B|-----------------------------------------------------------------|
G|-----------------------------------------------------------------|
D|--9-9-9-9-9-9-9-9-11-13-13-13-9-9-9-9-13-11-9-9-11-11-11-11-14---|
A|---------7-7-7-7-7--0--0--0-------------0--0-0-9--9--9--9--------|
E|-0-0-0-0---------------------7-7-7-7-7---------------------------|


Outro:

e|--------------------------|
B|--------------------------|
G|--------------------------|
D|--9-9-9-9-9-9-9-9-9-9-9-9-|
A|---------7-7-7-7----------|
E|-0-0-0-0---------7-7-7-7--|

Enjoy! :)
Tap to rate this tab
# A B C D E F G H I J K L M N O P Q R S T U V W X Y Z