Guitaretab - guitar tabs
Song name
# A B C D E F G H I J K L M N O P Q R S T U V W X Y Z

Switchfoot - Only Hope Acoustic tab

Hello guys!!! This is the first tb that i've done.. I hope that everyone enjoys itand i 
that I've done it correctly.. pa rate po.. ^^

Song: Only Hope
Artist: Switchfoot
Tabbed by: King Solon

Intro

e|--10--12------8-10-12-|
G|---------8\7----------|
B|----------------------|
D|----------------------|
A|----------------------|
E|----------------------|

e|---------------------------------------------------|
G|---------------------------------------------------|
B|-----------7~-9---7-7-7----------------------------|
D|-------9~------9~--------10-9--9-7-----------------|
A|--/7~-----------------------------10-7-9-10-9-7----|
E|------------------------------------------------10-|

e|-----------------------------------------------------|
G|-----------------------------------------------------|
B|-----------7~-------7-7-7----------------------------|
D|-------9~-----10-9~--------10-9--9-7-----------------|
A|--/7~-------------------------------10-7-9-10-9-7----|
E|--------------------------------------------------10-|

Verse

e|--------------------------------------------------------------------|
G|-----------------------------------------------3----3------3------0-|
B|----------7--------4--------------------------0-0--0-0----0-0---2---|
D|--------5--------0----------9---------4-----------------------------| 4x
A|---5/7--------------------7--------2-------2h3---------2h3----2-----|
E|--------------3--------9--------0-----------------3-----------------|
      Thereís..                             ..soul
      It the one..                          ..over and over again
      Im awake..                            ..cold
      But..                                 ..over and over again


Chorus

e|-00000000-00000000-00000000-00000000-|
G|-00000000-00000000-00000000-00000000-|
B|-99999999-88888888-66666666-66666666-|
D|-99999999-99999999-77777777-77777777-|
A|-77777777-77777777-77777777-77777777-|
E|-xxxxxxxx-xxxxxxxx-55555555-55555555-|
   So I lay my head back down

e|-00000000-00000000-00000000-00000000-00000000-00000000-0000-|
G|-00000000-00000000-00000000-55555555-00000000-55555555-4444-|
B|-99999999-88888888-66666666-66666666-66666666-66666666-5555-|
D|-99999999-99999999-77777777-66666666-77777777-66666666-5555-|
A|-77777777-77777777-77777777-44444444-77777777-44444444-3333-|
E|-xxxxxxxx-xxxxxxxx-55555555-xxxxxxxx-55555555-xxxxxxxx-xxxx-|
   And I lift..                                        ..only hope

Repeat Verse

Repeat Chorus

Then...

e|--------------------------------------------------|
G|----------------------------33----33----33--------|
B|----99----77----------77----00----00----00----44--|
D|----99----77----99----77----------------------44--|
A|--7-----5-------99ó-5-----3-----------3-----2-----|
E|--------------7-----------------3-----------------|

e|--------------------------------------------------|
G|----------------------------33----33----3---------|
B|----99----77----------77----00----00-----0--4444--|
D|----99----77----99----77--------------------4444--|
A|--7-----5-------99ó-5-----3-----------3-----2222--|
E|--------------7-----------------3-----------xxxx--|


Bridge
[ Tab from: http://www.guitaretab.com/s/switchfoot/44031.html ]
e|--------------------------------------------------------|
G|--------------------------------------------------------|
B|--22222222-22222222-22222222-22222222-22222222-22222222-|
D|--00000000-00000000-00000000-00000000-00000000-00000000-|
A|--xxxxxxxx-22222222-xxxxxxxx-22222222-xxxxxxxx-22222222-|
E|--33333333-xxxxxxxx-33333333-xxxxxxxx-33333333-xxxxxxxx-|
     I give..                                    ..symphony

e|--00000000-00000000--| |--00000000-00000000-00000000-00000000----|
B|--00000000-00000000--| |--00000000-00000000-00000000-00000000----|
G|--33333333-44444444--| |--44444444-44444444-44444444-44444444----|
D|--44444444-44444444--| |--22222222-44444444-22222222-44444444----|
A|--44444444-22222222--| |--xxxxxxxx-22222222-xxxxxxxx-22222222----|
E|--22222222-----------| |-----------------------------------------|
  Singing..    ..I am     At the top my lungs Iím giving it back


Last Chorus

e|-00000000-00000000-00000000-00000000-|
G|-00000000-00000000-00000000-00000000-|
B|-99999999-88888888-66666666-66666666-|
D|-99999999-99999999-77777777-77777777-|
A|-77777777-77777777-77777777-77777777-|
E|-xxxxxxxx-xxxxxxxx-55555555-55555555-|
   So I lay my head back down

e|-00000000-00000000-00000000-00000000-00000000-00000000-|
G|-00000000-00000000-00000000-55555555-00000000-55555555-|
B|-99999999-88888888-66666666-66666666-66666666-66666666-|
D|-99999999-99999999-77777777-66666666-77777777-66666666-|
A|-77777777-77777777-77777777-44444444-77777777-44444444-|
E|-xxxxxxxx-xxxxxxxx-55555555-xxxxxxxx-55555555-xxxxxxxx-|
   And I lift..                        ..to be only yours..

e|-00000000-00000000-00000000-|
G|-00000000-55555555-44444444-|
B|-66666666-66666666-55555555-|
D|-77777777-66666666-55555555-|
A|-77777777-44444444-33333333-|
E|-55555555-xxxxxxxx-xxxxxxxx-|
   Pray..            ..only hope


Outro

e|---------------------------------------------------|
G|---------------------------------------------------|
B|-----------7~-9---7-7-7----------------------------|
D|-------9~------9~--------10-9--9-7-----------------|
A|--/7~-----------------------------10-7-9-10-9-7----|
E|------------------------------------------------10-|

e|-----------------------------------------------------|
G|-----------------------------------------------------|
B|-----------7~-------7-7-7----------------------------|
D|-------9~-----10-9~--------10-9--9-7-----------------|
A|--/7~-------------------------------10-7-9-10-9-7----|
E|--------------------------------------------------10-|

Thereís a song thatís inside of my soul
Itís the one that Iíve tried to write over and over again
Iím awake in the infinite cold
But you sing to me over and over and over again

So I lay my head back down
And I lift my hands and pray
To be only yours I know now
Youíre my only hope

Sing to me the song of the stars
With your galaxies dancing and laughing and laughing again
When it feels like my dream are so far
Sing to me all the plans that you have for me over again

So I lay my head back down
And I lift my hands and pray
To be only yours I know now
Youíre my only hope

I give you my apathy
Iím giving you all of me
I want your symphony
Singing in all that I am
At the top of my lungs
Iím giving it back

So I lay my head back down
And I lift my hands and pray
To be only yours I pray..
To be only yours I know now
Youíre my only hope..

That's it.. I hope that everyone enjoys it..
Pa-add po sa friendster.. neo_ak27@yahoo.com

pati sa Yahoo messenger.. ^^
Related for Only Hope Acoustic tab