Guitaretab - guitar tabs
Song name
# A B C D E F G H I J K L M N O P Q R S T U V W X Y Z

Switchfoot - New Way To Be Human tab

Intro: guitar 2
/e------------------7--5-3---3--5----------3--5--7------->\
|B-------------------------5------------5----------5----->|
|G------------------------------------------------------->|
|D-2---2---2--------------------------------------------->|
|A-2---2---2---012--------------------------------------->|
|D------------------------------------------------------->|
|                                                         |
|Intro: guitar 2                                          |
|e------------------------------------------------------->|
|B------------------------------------------------------->|
|G--------------------------55--------------------------->|
|D-----------------2---55---55--------22---55---00------->|
|A-----------------2---55---33---012--22---55---00---012->|
\D-----------------2---55-------------22---55---00------->/

Intro: guitar 2
/e---7--5-3---3--5-----7-7--5-3----------->\
|B----------5-------------------5-3------->|
|G---------------------------------------->|
|D---------------------------------------->|
|A---------------------------------------->|
|D---------------------------------------->|
|                                          |
|Intro: guitar 2                           |
|e---------------------------------------->|
|B---------------------------------------->|
|G-----------55--------------------------->|
|D-22---55---55--------22---55---00------->|
|A-22---55---33---012--22---55---00---012->|
\D-22---55-------------22---55---00------->/

verse 1: guitar 2 (repeat)
e-------------------------------------------------------------------------->
B-------------------------------------------------------------------------->
G-----------55----------------------------------55------------------------->
D-22---55---55-------22--55--00-------22---55---55-------22---55---00------>
A-22---55---33--012--22--55--00--012--22---55---33--012--22---55---00--012->
D-22---55------------22--55--00-------22---55------------22---55---00------>
Everyday itís the same thing another trend has begun hey kids, this might
be the one itís a race to be noticed and itís leaving us numb hey kids, we
canít be the ones

Pre-chorus: guitar 1
e-3~----3~----------3~----3~----3~------------------->
B-3~----6~----------6~----3~----6~------------------->
G-5~----5~----2~----5~----5~----5~----2~------------->
D-5~----3~----2~----3~----5~----3~----2~----1~------->
A-3~----3~----0~----3~----3~----3~----0~----1~------->
D-------3~----------3~----------3~----------1~------->
With all of our fashion weíre still incomplete the God of redemption could
break our routine

Chorus: guitar 1
e-------------------------------------------------------------------------->
B-------------------------------------------------------------------------->
G------------55-----------------55-----------------55--------------5-5----->
D-757---33---55---556757---33---55---556757---33---55---556757--33-5-5-789->
A-757---33---33---556757---33---33---556757---33---33---556757--33-3-3-789->
D-757---33--------556757---33--------556757---33--------556757--33-----789->
Thereís a new way to be human itís nothing weíve ever been thereís a new
way to be human new way to be human

---REPEAT VERSE 1
And where is our inspiration when all the heroes are gone? hey kids, could
we be the ones?

---REPEAT PRE-CHORUS
Cause nobodyís famous and nobodyís fine we all need forgiveness and longing
inside
[ Tab from: http://www.guitaretab.com/s/switchfoot/56319.html ]
Chorus: guitar 1
e-------------------------------------------------------------------------->
B-------------------------------------------------------------------------->
G------------55-----------------55-----------------55--------------5-5----->
D-757---33---55---556757---33---55---556757---33---55---556757--33-5-5-5-5->
A-757---33---33---556757---33---33---556757---33---33---556757--33-3-3-5-5->
D-757---33--------556757---33--------556757---33--------556757--33-----5-5->
Thereís a new way to be human itís nothing weíve ever been thereís a new
way to be human itís spreading under my skin

Chorus: guitar 1
e-------------------------------------------------------------------------->
B-------------------------------------------------------------------------->
G------------55-----------------55-----------------55--------------5-5-5-5->
D-757---33---55---556757---33---55---556757---33---55---556757--33-5-5-5-5->
A-757---33---33---556757---33---33---556757---33---33---556757--33-3-3-3-3->
D-757---33--------556757---33--------556757---33--------556757--33--------->
thereís a new way to be human where divinity blends with a new way to be
human new way to be human

bridge: guitar 1
e------------------------------------------------>
B------------------------------------------------>
G-7~----9----10---------7~----9------------------>
D-7~----9----10---------7~----9----3----5555555-->
A-5~----7----8----------5~----7----3----5555555-->
D----------------------------------3----5555555-->
Youíre throwing your love across my impossible space youíve created me take
out of me into

Bridge:
e-------------------------------------------------------------------------->
B-------------------------------------------------------------------------->
G----------5-5---------------5-5---------------5-5----------------5-5------>
D-757--3-3-5-5--5-56757--3-3-5-5--5-56757--3-3-5-5--5-56757--3-3--5-5--5-5->
A-757--3-3-3-3--5-56757--3-3-3-3--5-56757--3-3-3-3--5-56757--3-3--3-3--5-5->
D-757--3-3------5-56757--3-3------5-56757--3-3------5-56757--3-3-------5-5->
A new way to be human to a new way to be human

Chorus: guitar 1
e-------------------------------------------------------------------------->
B-------------------------------------------------------------------------->
G------------55-----------------55-----------------55---------------55----->
D-757---33---55---556757---33---55---556757---33---55---556757--33--55-556->
A-757---33---33---556757---33---33---556757---33---33---556757--33--33-556->
D-757---33--------556757---33--------556757---33--------556757--33-----556->
Youíre a new way to be human where my humanity bends to a new a new way to
be human redemption begins

Chorus: guitar 1
e-------------------------------------------------------------------------->
B-------------------------------------------------------------------------->
G------------55-----------------55-----------------55---------------55----->
D-757---33---55---556757---33---55---556757---33---55---556757--33--55-556->
A-757---33---33---556757---33---33---556757---33---33---556757--33--33-556->
D-757---33--------556757---33--------556757---33--------556757--33-----556->
Youíre a new way to be human youíre a new way to be human youíre the only
way to be human youíre a new way to be human

End with:
e-------------------------------------------------------------------------->
B-------------------------------------------------------------------------->
G-------------------------------------------------------------------------->
D-757~--------------------------------------------------------------------->
A-757~--------------------------------------------------------------------->
D-757~--------------------------------------------------------------------->
Related for New Way To Be Human tab