Song name
# A B C D E F G H I J K L M N O P Q R S T U V W X Y Z

Switchfoot - Easier Than Love tab

intro: guitar 1 (*= bent note)
e-------------------------------------------------------------------------->
B-------------------------------------------------------------------------->
G-/7-7-7-------------7-7-7-------------7-7-7------------------------------->
D-/7-7-797999*9*9*99-7-7-797999*9*9*99-7-7-797999*9*9*99-3-3-333999*9*9*99->
A-/5-5-5555----------5-5-5555----------5-5-5555----------3-3-3335---------->
D---------5-----------------5-----------------5----------3-3-3335---------->
          lalalalala        lalalalala        lalalalala

verse 1: guitar 1
e------------------------------------------------------------------->
B------------------------------------------------------------------->
G-7-7-7-------------------------------7-7-7------------------------->
D-7-7-797999*9*9*99-3-3-333999*9*9*99-7-7-797999*9*9*99-3-3-333555-->
A-5-5-5555----------3-3-3335----------5-5-5555----------3-3-333555-->
D--------5----------3-3-3335-----------------5----------3-3-333555-->
Sex is currency She sells cars, She sells magazines Addictive bittersweet, clap your 
with the hopeless nicotines

verse 1: guitar 1
e-------------------------------------------------------------------->
B-------------------------------------------------------------------->
G-6x-x7xxx/11xxx2xxx7xx6x7xx9xx6xx-6x-x7xxx/11xxx2xxx7xx6x7xx9xx6xx-->
D-6x-x7xxx/11xxx2xxx7xx6x7xx9xx6xx-6x-x7xxx/11xxx2xxx7xx6x7xx9xx6xx-->
A-4x-x5xxx/9-xxx0xxx5xx4x5xx7xx4xx-4x-x5xxx/9-xxx0xxx5xx4x5xx7xx4xx-->
D-------------------------------------------------------------------->
Everyone's a lost romantic, Since our love became a kissing show Everyone's a cassanova, 
and pass me the mistletoe

pre-chorus: guitar 1
e---------------------->
B---------------------->
G-55554444------------->
D-5555444444445555+++-->
A-3333222244445555+++-->
D---------44445555+++-->
Everyone's been scared to death of dying here alone

chorus: guitar 1
e------------------------------------------------------------------------->
B--3-3--3-3----------------3--3--3-3-------------------------------------->
G--2-2--2-2----7-7--7-7----2--2--2-2----7-7--7-7-------------------------->
D-000000000005575755757550000000000000557575575755/99999777775555555555++->
A-000000000005555555555550000000000000555555555555/99999777775555555555++->
D-000000000005555555555550000000000000555555555555/99999777775555555555++->
She is easier than love It's easier to lie It's easier to fake and smile and bribe It's 
to leave It's easier to lie It's harder to face ourselves at night Feeling alone, What 
we done? What is the monster we've become?

chorus: guitar 1
e---------------->
B---------------->
G---------------->
D-7777777775555-->
A-7777777775555-->
D-7777777775555-->
Were is my soul? lalalalalalala

fill: guitar 1
e--------------------------------------->
B--------------------------------------->
G--------------------------------------->
D-0-120120999*9*9*990-120120999*9*9*99-->
A-0-1201205---------0-1201205----------->
D-0-1201205---------0-1201205----------->
          lalalalala

verse 2: guitar 1
e------------------------------------------------------------>
B------------------------------------------------------------>
G-7-7x-x7-------------------------7-7x-x7-------------------->
D-7-7x-x7-5-5x-x5-3-3x-x3-2-2x-x2-7-7x-x7-5-5x-x5-3-3x-x3-2-->
A-5-5x-x5-5-5x-x5-3-3x-x3-2-2x-x2-5-5x-x5-5-5x-x5-3-3x-x3-2-->
D---------5-5x-x5-3-3x-x3-2-2x-x2---------5-5x-x5-3-3x-x3-2-->
Sex is industry, The CEO, of corporate policy Skin-deep ministry, Suburban youth, 
so-called liberty

verse 2: guitar 1
e-------------------------------------------------------------------->
B-------------------------------------------------------------------->
G-6x-x7xxx/11xxx2xxx7xx6x7xx9xx6xx-6x-x7xxx/11xxx2xxx7xx6x7xx9xx6xx-->
D-6x-x7xxx/11xxx2xxx7xx6x7xx9xx6xx-6x-x7xxx/11xxx2xxx7xx6x7xx9xx6xx-->
A-4x-x5xxx/9-xxx0xxx5xx4x5xx7xx4xx-4x-x5xxx/9-xxx0xxx5xx4x5xx7xx4xx-->
D-------------------------------------------------------------------->
Every advertising antic, a banner waves with a neon glow War and love become pedantic, 
wage love with a mistletoe

pre-chorus: guitar 1
e---------------------->
B---------------------->
G-55554444------------->
D-5555444444445555+++-->
A-3333222244445555+++-->
D---------44445555+++-->
Everyone's been scared to death of dying here alone

REPEAT CHORUS

REPEAT FILL 2x

bridge: guitar 1
e-------------------------------------------------------------------------->
B-------------------------------------------------------------------------->
G---------------11b----11b-----------------------11b----11b----7-7--------->
D----9xx-979-9xx---12-9---12-11-9xx-79-7-9xx-79---12-9---12-9---1179-99-79->
A-------------------------------------------------------------------------->
D-------------------------------------------------------------------------->
It's easier to love, It's easier to love It's easier to love, It's easier to love She is 
to love, It's easier to, love

bridge: guitar 1 (r= 10th fret)
e------------------------------------------------>
B------------------------------------------------>
G-------------------------------------------9~~-->
D-rrrrrr9999944444555557777799999\44444555555~~-->
A-rrrrrr9999944444555557777799999\4444455555----->
D-rrrrrr9999944444555557777799999\4444455555----->
Everyone's been scared to death of, Everyone's been scared to death of, Everyone's been 
to death of dying here alone, alone

chorus 3: guitar 1
e------------------------------------------------------------------------->
B--3-3--3-3----------------3--3--3-3-------------------------------------->
G--2-2--2-2----7-7---------2--2--2-2----7-7--7-7-------------------------->
D-00000000000557575------0000000000000557575575755/99999777775555555555++->
A-00000000000555555------0000000000000555555555555/99999777775555555555++->
D-00000000000555555------0000000000000555555555555/99999777775555555555++->
She’s easier than love, It's easier to lie, It's easier to fake and smile and bribe It's 
to leave, It's easier to lie, It's harder to face ourselves at night Feeling alone, 
have we done? What is the monster we've become?

chorus 3: guitar 1
e----------------------------------------------------------------->
B----------------------------------------------------------------->
G----------------------------------------------------------------->
D-77777777755555555557-7-7-7-7-7-5-5-5-5-5-9*99*99*99*99*99*99*9-->
A-77777777755555555557-7-7-7-7-7-5-5-5-5-5------------------------>
D-77777777755555555557-7-7-7-7-7-5-5-5-5-5------------------------>
Where is my soul? Where is my - Where is my soul? lalalalalalalalalala

outro: guitar 1
e-------------------------------------------------------------------------->
B-------------------------------------------------------------------------->
G-------------------------------------------------------------------------->
D-0-1201209*9*9*9*9*0-1201209*9*9*9*9*0-1201209*9*9*9*9*0-1201209*9*9*9*9*->
A-0-1201205---------0-1201205---------0-1201205---------0-1201205---------->
D-0-1201205---------0-1201205---------0-1201205---------0-1201205---------->
          lalalalala        lalalalala        lalalalala

outro: guitar 1
e------2-2~~-->
B------3-3~~-->
G------2-2~~-->
D-++-++0-0~~-->
A-++-++0-0~~-->
D-++-++0-0~~-->
Tap to rate this tab
 
# A B C D E F G H I J K L M N O P Q R S T U V W X Y Z