Guitaretab - guitar tabs
Song name
# A B C D E F G H I J K L M N O P Q R S T U V W X Y Z

Switchfoot - It Might Have Ben Hur tab

                            SWITCHFOOT
                       IT MIGHT HAVE BEN HUR


standard tuning
EADGBe


intro
------------------------------------------------|
------------------------------------------------|
------------------------------------------------|
--11-14-----------11h12h14-11h12h14----11brbr---|
--------11h12p11--------------------------------|
------------------------------------14----------|

w/ distortion
--------------------------------------|
--------------------------------------|
-----------------7-7-7-7-9-9-9-9------|
-4-4-4-4-2-2-2-2-7-7-7-7-9-9-9-9------|
-4-4-4-4-2-2-2-2-5--5-5-5-7-7-7-7-----|
-2-2-2-2-0-0-0-0----------------------|

----------------------------------|
----------------------------------|
------------7----9----7----10-----|
--4----2----7-x8-9-x8-7-x8-10-----|
--4-X4-2-x4-5----7----5-----8-----|
--2----0--------------------------|
[ Tab from: http://www.guitaretab.com/s/switchfoot/63732.html ]
SOLO
------0-------------0------------------------------0--0/2\0--2--5--5/7\5----|
---2-------------2-----------0-1-0---0---0/2-2--2---------------------------|
----------1/2\1------------2-------2---2------------------------------------|
-----------------------4----------------------------------------------------|
----------------------------------------------------------------------------|
----------------------------------------------------------------------------|

---------------------------------------------------0-------------0---------|
-----0--1--0-----0-----2~~~~~~~~~~-----------------------------------------|
---2----------2-----2------------------------2------------1----------------|
---------------------------------------------------------------------------|
---------------------------------------------------------------------------|
---------------------------------------------------------------------------|

thats it
peace
Related for It Might Have Ben Hur tab
Advertisement will be closed in 10 seconds