Song name
# A B C D E F G H I J K L M N O P Q R S T U V W X Y Z

Switchfoot - Lonely Nation tab

               intro: guitar 1
e-12~~--------------------------------------------------------------------->
B--------------3-5-0--3-5-0-3-3-5-0--3-5-0-3-3-5-0--3-5-0-3-3-5-0--3-5-0-3->
G-9~-h12~~----------------------------------------------------------------->
D-------------------------------------------------------------------------->
A-------------------------------------------------------------------------->
E-------------------------------------------------------------------------->

        intro: guitar 2
e-------------------------------------------------------------------------->
B-------------------------------------------------------------------------->
G-------------------------------------------------------------------------->
D-------2xxx0x2x-2xx0x2x-2x-xxxx0x-2x-xxxx0x-2x-xxxx0x-2x-xxxx0x-2x-xxxx0x->
A-------2xxx0x2x-2xx0x2x-2x-xxxx0x-2x-xxxx0x-2x-xxxx0x-2x-xxxx0x-2x-xxxx0x->
D-------2xxx0x2x-2xx0x2x-2x-xxxx0x-2x-xxxx0x-2x-xxxx0x-2x-xxxx0x-2x-xxxx0x->

verse 1: guitar 1
e-------------------------------------------------------------------------->
B-------------------------------------------------------------------------->
G-------------------------------------------------------------------------->
D-2x-xxx0x-2x-xxx0x-2x-xxx0x-2x-xxx0x-2x-xxx0x-2x-xxx0x-2x-xxxx0x-10xxxxxx->
A-2x-xxx0x-2x-xxx0x-2x-xxx0x-2x-xxx0x-2x-xxx0x-2x-xxx0x-2x-xxxx0x-10xxxxxx->
D-2x-xxx0x-2x-xxx0x-2x-xxx0x-2x-xxx0x-2x-xxx0x-2x-xxx0x-2x-xxxx0x-10xxxxxx->
She turns like the ocean She tells no emotion Sheís been gunning down the
fight

verse 1: guitar 1
 (\/______________________guitar 1 repeat intro_____________________\/)
e-------------------------------------------------------------------------->
B-------------------------------------------------------------------------->
G-------------------------------------------------------------------------->
D-2x-xxx0x-2x-xxx0x-2x-xxx0x-2x-xxx0x-2x-xxx0x-2x-xxx0x-2x-xx0x-10-9~10-+++>
A-2x-xxx0x-2x-xxx0x-2x-xxx0x-2x-xxx0x-2x-xxx0x-2x-xxx0x-2x-xx0x-10-9~10-+++>
D-2x-xxx0x-2x-xxx0x-2x-xxx0x-2x-xxx0x-2x-xxx0x-2x-xxx0x-2x-xx0x-10-9~10-+++>
Sheís just reminiscing Blood, sweat, and one thingís missing Sheís been
breaking up inside, inside

chorus: guitar 1 (A= 10th fret, C= 12th fret)
e-----------2-----3------------------------------2-----3------------------->
B-----------3-----3------------------------------3-----3------------------->
G--7-----7-----------C-----C--C---------7-----7-----------C-----C--C------->
D-57-+++57-0--+++0--AC-+++AC-AC-+++A-C-57-+++57-0--+++0--AC-+++AC-AC+++A-C->
A-5--+++5--0--+++0--A--+++A--A--+++A-C-5--+++5--0--+++0--A--+++A--A-+++A-C->
D-5--+++5--0--+++0--A--+++A--A--+++A-C-5--+++5--0--+++0--A--+++A--A-+++A-C->
Singing without tongues, screaming without lungs I want more than my lonely
nation, I want more than my lonely nation Desperate we are young, Separate
we are one I want more than my desperation, I want more than my lonely
nation

fill: repeat intro pt. 2 (oh...oh-oh... oh...oh-oh...)

verse 2: guitar 1
e-------------------------------------------------------------------------->
B-555-0-3-55-8-555-0-3-55-8-555-0-3-55-8-555-0-3-555-0-3-55-8-555-0-3-55--->
G-------------------------------------------------------------------------->
D-------------------------------------------------------------------------->
A-------------------------------------------------------------------------->
E-------------------------------------------------------------------------->

verse 2: guitar 2
e-------------------------------------------------------------------------->
B-------------------------------------------------------------------------->
G--------------------------------------------------------------------9~~--->
D-2x-xxx0x-2x-xxx0x-2x-xxx0x-2x-xxx0x-2x-xxx0x-2x-xxx0x-2x-xxx0x-9~~-9~~--->
A-2x-xxx0x-2x-xxx0x-2x-xxx0x-2x-xxx0x-2x-xxx0x-2x-xxx0x-2x-xxx0x-9~~------->
D-2x-xxx0x-2x-xxx0x-2x-xxx0x-2x-xxx0x-2x-xxx0x-2x-xxx0x-2x-xxx0x-9~~------->
We are the target market We set the corporate target We are slaves of what
we want Weíre just

verse 2: guitar 1
e-------------------------------------------------------------------------->
B-555-0-3-55-8-555-0-3-55-8-555-0-3-55-8-555-0-3-555-0-3-55-8-555-0-3-5---->
G-------------------------------------------------------------------------->
D-------------------------------------------------------------------------->
A-------------------------------------------------------------------------->
E-------------------------------------------------------------------------->

verse 2: guitar 2
e-------------------------------------------------------------------------->
B-------------------------------------------------------------------------->
G-------------------------------------------------------------------------->
D-2x-xxx0x-2x-xxx0x-2x-xxx0x-2x-xxx0x-2x-xxx0x-2x-xxx0x-2x-xxx0x-999999+++->
A-2x-xxx0x-2x-xxx0x-2x-xxx0x-2x-xxx0x-2x-xxx0x-2x-xxx0x-2x-xxx0x-999999+++->
D-2x-xxx0x-2x-xxx0x-2x-xxx0x-2x-xxx0x-2x-xxx0x-2x-xxx0x-2x-xxx0x-999999+++->
numb and amused and weíre just used to bad news and We are slaves of what
we want

repeat chorus

fill 2: guitar 1
e-----3333/AAAA-7777----3333/CCCC-7777\->
B-1111--------------1111---------------->
G--------------------------------------->
D--------------------------------------->
A--------------------------------------->
E--------------------------------------->

fill 2: guitar 2
e----------------------------->
B----------------------------->
G-444444------555555---------->
D-444444------555555---------->
A-222222------333333---------->
D----------------------------->
oh-oh-oh-OHHHHHHHHHHHHHH

bridge: guitar 1
e-------------------------------------------------------------------------->
B-------------------------------------------------------------------------->
G-------------------------------------------------------------------------->
D-----------------------E\2/E---------------------------------------------->
A-------------------------------------------------------------------------->
E-------------------------------------------------------------------------->

bridge: guitar 2
e-------------------------------------------------------------------------->
B--------------33333--------33355555--------------------------------------->
G--------------22222--------22244444------2-----2-----2---------2-----2222->
D-2++-++-++-++-00000-2++-++-00022222-0222-0-222-0-222-0-222-202-0-202-0000->
A-2++-++-++-++-------2++-++----------0222---222---222---222-202---202------>
D-2++-++-++-++-------2++-++----------0222---222---222---222-202---202------>
Lonely, lonely

bridge: guitar 1 (F= 15th fret, A= 10th fret)
e-FFFFFFF-AAAA-777777-FFFFFFF-AAAA-777777-FFFFFFF-AAAA-777777-->
B-------------------------------------------------------------->
G--------------------------------------------------------------> repeat
D-------------------------------------------------------------->
A-------------------------------------------------------------->
E-------------------------------------------------------------->

bridge: guitar 2                                                2nd
e--------------------------------------------------------------|----------->
B--------------------------------------------------------------|----------->
G--------------------------------------------------------------|----------->
D--------------------------------------------------------------|-9999-AAAA->
A--------------------------------------------------------------|-9999-AAAA->
D--------------------------------------------------------------|-9999-AAAA->
Donít leave me hollow Iím tired donít leave me hollow Iím tired of feeling
low, of feeling hollow Iím tired of feeling low, of feeling hollow Iím
tired of feeling low, of feeling hollow Iím tired of feeling low, of
feeling hollow, of feeling hollow, of feeling hollow

repeat chorus

outro: guitar 2
e-------------------------------------------->
B----------3-------3------------------------->
G----------2-------2-----2-------2---5~~----->
D-0-2202202022022020-0-2-0-2-0-2-0-2-5~~----->
A-0-2202202-2202202--0-2---2-0-2---2-3~~----->
D-0-2202202-2202202--0-2---2-0-2---2--------->
I want more than my lonely nation I want more than my lonely nation oh-ohhhhh
Tap to rate this tab
# A B C D E F G H I J K L M N O P Q R S T U V W X Y Z