Song name
# A B C D E F G H I J K L M N O P Q R S T U V W X Y Z

Switchfoot - Shadows Prove The Sunshine Live Acoustic tab

Switchfoot
The Shadow Proves The Sunshine (Live Acoustic)
Nothing Is Sound

Tuning - Standard Tuning (E A D G B e)
I don’t know about the other tabs but I am 99% sure this is the way they played it live.
I only tabbed the main guitar I will add the second guitar later.  This was played with
a bass, 2 acoustics guitars, keyboard and drums.  First part is all down strokes then you
start strumming at “yeah”.  Not sure about the intro but I tabbed it anyways to give you
something to make the static sound. 

Into
E|---7-7-7-7-7-7-7-7-|
B|---9-9-9-9-x-x-x-x-|
G|---9-9-9-9-9-9-9-9-|repeat 
D|---9-9-9-9-9-9-9-9-|
A|-------------------|
E|-------------------|

Sunshine won't you be my mother?
E|---7-7-7-7-5-5-5-5-7-7-7-7-5-5-5-5|
B|---9-9-9-9-7-7-7-7-9-9-9-9-7-7-7-7|
G|---9-9-9-9-9-9-9-9-9-9-9-9-9-9-9-9|
D|---8-8-8-8---------8-8-8-8--------|
A|----------------------------------|
E|----------------------------------|

Sunshine come and help me sing
E|---x-x-x-x-7-7-7-7-9-9-9-9-7-7-7-7|
B|---7-7-7-7-x-x-x-x-x-x-x-x-x-x-x-x|
G|---9-9-9-9-9-9-9-9-9-9-9-9-9-9-9-9|  
D|---9-9-9-9-9-9-9-9-9-9-9-9-9-9-9-9|
A|----------------------------------|
E|----------------------------------|


My heart is darker than these oceans 
E|---x-x-x-x-7-7-7-7-9-9-9-9-7-7-7-7|
B|---7-7-7-7-x-x-x-x-x-x-x-x-x-x-x-x|
G|---9-9-9-9-9-9-9-9-9-9-9-9-9-9-9-9|  
D|---9-9-9-9-9-9-9-9-9-9-9-9-9-9-9-9|
A|----------------------------------|
E|----------------------------------|

You get the idea…

Chorus: The shadow proves the sunshine
E|---5-5-5-5-7-7-7-7-|
B|---7-7-7-7-9-9-9-9-|
G|---7-7-7-7-9-9-9-9-| repeat
D|---9-9-9-9-8-8-8-8-|
A|-------------------|
E|-------------------|

then
E|---x-x-x-x-7-7-7-7-9-9-9-9-7-7-7-7|
B|---7-7-7-7-x-x-x-x-x-x-x-x-x-x-x-x|
G|---9-9-9-9-9-9-9-9-9-9-9-9-9-9-9-9|  
D|---9-9-9-9-9-9-9-9-9-9-9-9-9-9-9-9|
A|----------------------------------|
E|----------------------------------|

Yeah, Yeah  (strum)
E|---7-7-7-7-x-x-x-x-7-7-7-7-9-9-9-9-|
B|---x-x-x-x-7-7-7-7-x-x-x-x-x-x-x-x-|
G|---9-9-9-9-9-9-9-9-9-9-9-9-9-9-9-9-|  
D|---9-9-9-9-9-9-9-9-9-9-9-9-8-8-8-8-|
A|---8-8-8-8-8-8-8-8-8-8-8-8---------|
E|-----------------------------------|


God Bless!!!!
Tap to rate this tab
# A B C D E F G H I J K L M N O P Q R S T U V W X Y Z