Song name
# A B C D E F G H I J K L M N O P Q R S T U V W X Y Z

Switchfoot - Economy Of Mercy tab

The Economy Of Mercy

INTRO:
e|-------|-----------------------------------------------0---|
B|-------|-----3--3----3--3--3----3--3--3--3--3--33-3p2-2-23-|
G|-------|----2-2--2--2--2-2--2--2--0-0---0-0---2------------|
D|-----0-|---0-----------------------------------------------|
A|---2---|-0---------0--2----------------------0-------------|
E|-3-----|----------------------2--3-----2-------------------|

e|---------------------------------------------------|
B|---3--3----3--3--3----3--3--3--3--3--33-3p2-202(3)-|
G|--2-2--2--2--2-2--2--2--0-0---0-0---0--------------|
D|-0-------------------------------------------------|
A|---------0--2--------------------------------------|
E|--------------------2--3-----2-----0---------------|

VERSE 1:
Bm  Em  F#m  G ---> B|-3333~-|...  -  Bm  Em  F#m  G ---> B|-1515~-|...

PRE-CHORUS:
Em  F#m  G  -  Em  F#m  G  A

CHORUS: 2x                       (10) = 2nd                         1st
e|------9----------------9-------------------9--------------------|-----|
B|-10-10--10-10--10-10-12--10-10--10-10-10-10--10--10-10-109-(10)-|--10-|
G|---9---9--9------9--9---9--9------9--9--9---9------9--9---9-----|-9---|
D|----------------------------------------------------------------|-----|
A|----------------------------------------------------------------|-----|
E|----------------------------------------------------------------|-----|

TRANSITION:
A  F#m  G

VERSE 2: 4x                                   Last   
e|-0---0---------0--------0---------23200-|----00000-|
B|-3-3--3-----3-3-3------3--3------3-3333-|---3-3333-|
G|-2--2--2-----2---2----2--2-2----2-------|--2-------|
D|-00--------0---------0---------0--------|-0--------|
A|-0--------------------------------------|----------|
E|----------------------------------------|----------|

Pre-chorus
Chorus

TRANSITION:
A  Bm  D

Bridge:
Em  F#m  G  -  Bm  A  Em  -  G  D  Em
Bm  A  Em  -  G  D  A  -  Bm  A  G  -  Em  D  A

OUTRO:
e|----------------------------------------22222200-|
B|---3--3----3--3--3----3--3--3--3--3--3--33333333-|
G|--2-2--2--2--2-2--2--2--0-0---0-0---2-2----------|
D|-0-----------------------------------------------|
A|---------0--2----------------------0-------------|
E|--------------------2--3-----2-------------------|

e|------------------------------------------------2~-|
B|---3--3----3--3--3----3--3--3--3--3--3--3p2-0h2-3~-|
G|--2-2--2--2--2-2--2--2--0-0---0-0---2-2---------2~-|
D|-0-------------------------------------------------|
A|---------0--2--------------------------------------|
E|--------------------2--3-----2-----0---------------|

-eraserfree@yahoo.com
Tap to rate this tab
# A B C D E F G H I J K L M N O P Q R S T U V W X Y Z