Song name
# A B C D E F G H I J K L M N O P Q R S T U V W X Y Z

Switchfoot - Shadow Proves The Sunshine Acoustic tab

Switchfoot
The Shadow Proves The Sunshine (Acoustic)
Nothing Is Sound

Tuning - Standard Tuning (E A D G B e)


E|----------------------------------|
B|----------------------------------|
G|---8-8-8-8---------8-8-8-8--------|
D|---9-9-9-9-9-9-9-9-9-9-9-9-9-9-9-9|
A|---9-9-9-9-7-7-7-7-9-9-9-9-7-7-7-7|
E|---7-7-7-7-5-5-5-5-7-7-7-7-5-5-5-5|


Sunshine won't you be my mother?
E|----------------------------------|
B|----------------------------------|
G|---8-8-8-8---------8-8-8-8--------|
D|---9-9-9-9-9-9-9-9-9-9-9-9-9-9-9-9|
A|---9-9-9-9-7-7-7-7-9-9-9-9-7-7-7-7|
E|---7-7-7-7-5-5-5-5-7-7-7-7-5-5-5-5|

Sunshine come and help me sing
E|--------------------------------|
B|--------------------------------|
G|-9-9-9-9-9-9-9-9-9-9-9-9-9-9-9-9|
D|-9-9-9-9-9-9-9-9-9-9-9-9-9-9-9-9|
A|-7-7-7-7-x-x-x-x-x-x-x-x-x-x-x-x|
E|-x-x-x-x-7-7-7-7-9-9-9-9-7-7-7-7|


My heart is darker than these oceans 
E|--------------------------------|
B|--------------------------------|
G|-9-9-9-9-9-9-9-9-9-9-9-9-9-9-9-9|
D|-9-9-9-9-9-9-9-9-9-9-9-9-9-9-9-9|
A|-7-7-7-7-x-x-x-x-x-x-x-x-x-x-x-x|
E|-x-x-x-x-7-7-7-7-9-9-9-9-7-7-7-7|

You get the idea…

Chorus: The shadow proves the sunshine

E|-------------------|
B|-------------------|
G|---6-6-6-6-8-8-8-8-| repeat
D|---7-7-7-7-9-9-9-9-|
A|---7-7-7-7-9-9-9-9-|
E|---5-5-5-5-7-7-7-7-|


then
E|--------------------------------|
B|--------------------------------|
G|-9-9-9-9-9-9-9-9-9-9-9-9-9-9-9-9|
D|-9-9-9-9-9-9-9-9-9-9-9-9-9-9-9-9|
A|-7-7-7-7-x-x-x-x-x-x-x-x-x-x-x-x|
E|-x-x-x-x-7-7-7-7-9-9-9-9-7-7-7-7|


Yeah, Yeah  (strum this part)
E|--------------------------------|
B|--------------------------------|
G|-9-9-9-9-9-9-9-9-9-9-9-9-9-9-9-9|
D|-9-9-9-9-9-9-9-9-9-9-9-9-9-9-9-9|
A|-x-x-x-x-7-7-7-7-x-x-x-x-x-x-x-x|
E|-7-7-7-7-x-x-x-x-7-7-7-7-9-9-9-9|


God Bless!!!!
Tap to rate this tab
# A B C D E F G H I J K L M N O P Q R S T U V W X Y Z