Guitaretab - guitar tabs
Song name
# A B C D E F G H I J K L M N O P Q R S T U V W X Y Z

Switchfoot - On Fire Live tab

Switchfoot - Times They Are a-Changin'/On Fire (live version)
Tabbed by: Miko Savady

      C                           G          C
 Come gather 'round children, wherever you roam
       C                          G
 And admit that the waters around you have grown
       Am                          G               C
 And accept it that soon you'll be drenched to the bone 
         C                    D/F#  <--(200232)
 If your time to you is worth savin'
          F                               G
 Then you better start swimmin' or you'll sink like a stone
         F                G  C      C-G-C
 For the times they are a-changin'.

Intro
Gtr1
e|----------0---------------3---------------0---------------1------------------|
B|----------1---------------3---------------1---------------1------------------|
G|----------0---------------0---------------0---------------2------------------|
D|----------2---------------0---------------2---------------3------------------|
A|----------3---------------2---------------0---------------3------------------|2x
E|--------------------------3-------------------------------1------------------|
Gtr2
e|----------0---------------x-----------x---0---------------1------------------|
B|----------1---------------8-----------10--1---------------1------------------|
G|----------0---------------0-----------0---0---------------2------------------|
D|----------2---------------9-----------9---2---------------3------------------|
A|----------3---------------10----------10--0---------------3------------------|2x
E|--------------------------x-----------x-------------------1------------------|

Verse 1
Gtr1
e|--------------------------------------------------------------1--------------|
B|--------------------------------------------------------------1--------------|
G|----------5---4-----------5---4-----------5---4-----------0---2--------------|
D|----------5---5-----------5---5-----------5---5---------------3--------------|
A|----------3---3-----------3---x-----------3---0---------------3--------------|
E|------------------------------3-------------------------------1--------------|
Gtr2
e|-----------------------------------------------------------------------------|
B|-----------------------------------------------------------------------------|
G|----------5---4-----------5---4-----------5---4------------------------------|
D|----------------------------------------------------------5---7--------------|
A|-----------------------------------------------------------------------------|
E|-----------------------------------------------------------------------------|
                    They..      go..               to leave..

Gtr1
e|--------------------------------------------------------------1--------------|
B|--------------------------------------------------------------1--------------|
G|----------5---4-----------5---4-----------5---4-----------0---2--------------|
D|----------5---5-----------5---5-----------5---5---------------3--------------|
A|----------3---3-----------3---x-----------3---0---------------3--------------|
E|------------------------------3-------------------------------1--------------|
Gtr2
e|------------------------------------------7----------------------------------|
B|--------------------------------------------8-------------8------------------|
G|----------5---4-----------5---4---------------9-------------9----------------|
D|--------------------------------------------------------------10-------------|
A|-----------------------------------------------------------------------------|
E|-----------------------------------------------------------------------------|
                    They..      know..             to be..

Prechorus
Gtr1
e|----------0---------------3---------------0-------------------1--------------|
B|----------1---------------3---------------1-------------------1--------------|
G|----------0---------------0---------------0-------------------2--------------|
D|----------2---------------0---------------2-------------------3--------------|
A|----------3---------------2---------------0-------------------3--------------|
E|--------------------------3-----------------------------------1--------------|
Gtr2
e|--------------------------3---------------0----------------------------------|
B|------0-------------------3---------------1-------------------1--------------|
G|--------0-----------------0---------------0-------------------2--------------|
D|----------2---------------0---------------2-------------------3--------------|
A|--------------------------2---------------0-------------------0--------------|
E|--------------------------3--------------------------------------------------|
            When everything..                                   filled..

Chorus
Gtr1
e|----------0---------------3---------------0---------------1------------------|
B|----------1---------------3---------------1---------------1------------------|
G|----------0---------------0---------------0---------------2------------------|
D|----------2---------------0---------------2---------------3------------------|
A|----------3---------------2---------------0---------------3------------------|
E|--------------------------3-------------------------------1------------------|
Gtr2
e|----------0---------------x---------------0---------------1------------------|
B|----------1---------------8---------------1---------------1------------------|
G|----------0---------------0---------------0---------------2------------------|
D|----------2---------------9---------------2---------------3------------------|
A|----------3---------------10--------------0---------------3------------------|
E|--------------------------x-------------------------------1------------------|
         on fire  when he's near you..  on fire  when he speaks

Gtr1
e|----------0---------------3---------------0----------------------------------|
B|----------1---------------3---------------1----------------------------------|
G|----------0---------------0---------------0----------------------------------|
D|----------2---------------0---------------2----------------------------------|
A|----------3---------------2---------------3----------------------------------|
E|--------------------------3--------------------------------------------------|
Gtr2
e|----------0---------------x---------------0----------------------------------|
B|----------1---------------8---------------1----------------------------------|
G|----------0---------------0---------------0----------------------------------|
D|----------2---------------9---------------2----------------------------------|
A|----------3---------------10--------------3----------------------------------|
E|--------------------------x--------------------------------------------------|
       ..on fire   burning at these mysteries.

Verse 2
Gtr1
e|----------0-------------------------------0---------------1------------------|
B|----------0---------------0---------------1---------------1------------------|
G|----------0---------------0---------------0---------------2------------------|
D|----------2---------------0---------------2---------------3------------------|
A|----------3---------------2-------------------------------3------------------|
E|--------------------------3-------------------------------1------------------|
Gtr2
e|-----------------------------------------------------------------------------|
B|------------------1---1-----------0---0---------0h1-0------------------------|
G|--------------------0---0-----------0---0-------------0----------------------|
D|--------------------------0---------------2-------------2-3------------------|
A|-----------------------------------------------------------------------------|
E|-----------------------------------------------------------------------------|
               Give me..                      to see..
[ Tab from: http://www.guitaretab.com/s/switchfoot/65780.html ]
Gtr1
e|----------0---------------3---------------0---------------1------------------|
B|----------1---------------3---------------1---------------1------------------|
G|----------0---------------0---------------0---------------2------------------|
D|----------2---------------0---------------2---------------3------------------|
A|----------3---------------2---------------0---------------3------------------|
E|--------------------------3-------------------------------1------------------|
Gtr2
e|----------------------------------------------0---0---0---0---0---0----------|
B|--0h1-------------1---1-----------0---0-----3---3---3---3---3---3---3-0-1----|
G|------0-------------0---0-----------0---0------------------------------------|
D|--------3-2---------------0---------------2----------------------------------|
A|-----------------------------------------------------------------------------|
E|-----------------------------------------------------------------------------|
               Give me..                      to be near you...

Prechorus
Gtr1
e|----------0---------------3---------------0-------------------1--------------|
B|----------1---------------3---------------1-------------------1--------------|
G|----------0---------------0---------------0-------------------2--------------|
D|----------2---------------0---------------2-------------------3--------------|
A|----------3---------------2---------------0-------------------3--------------|
E|--------------------------3-----------------------------------1--------------|
Gtr2
e|----------------0------------------------------------------------------------|
B|--------------1-----1-----0-------0---0---------------1---1---1--------------|
G|------------0-----------0-----------0---0---------------0---0-2--------------|
D|----------2-------------------------------2-------------------3--------------|
A|--------------------------------------------------------------0--------------|
E|-----------------------------------------------------------------------------|
            When everything..                                   only chance..

Chorus
Gtr1
e|----------0---------------3---------------0---------------1------------------|
B|----------1---------------3---------------1---------------1------------------|
G|----------0---------------0---------------0---------------2------------------|
D|----------2---------------0---------------2---------------3------------------|
A|----------3---------------2---------------0---------------3------------------|
E|--------------------------3-------------------------------1------------------|
Gtr2
e|----------0---------------x---------------0---------------1------------------|
B|----------1---------------8---------------1---------------1------------------|
G|----------0---------------0---------------0---------------2------------------|
D|----------2---------------9---------------2---------------3------------------|
A|----------3---------------10--------------0---------------3------------------|
E|--------------------------x-------------------------------1------------------|
         on fire  when you're near me..  on fire  when he speaks

Gtr1
e|----------0---------------3---------------0---------------1------------------|
B|----------1---------------3---------------1---------------1------------------|
G|----------0---------------0---------------0---------------2------------------|
D|----------2---------------0---------------2---------------3------------------|
A|----------3---------------2---------------0---------------3------------------|
E|--------------------------3-------------------------------1------------------|
Gtr2
e|----------0---------------x-----------------------------0-5-----3------------|
B|----------1---------------8-------------------------0-1----------------------|
G|----------0---------------0-----------------------2--------------------------|
D|----------2---------------9---------------------2----------------------------|
A|----------3---------------10--------------0-2-3------------------------------|
E|--------------------------x--------------------------------------------------|
       ..on fire   burning at these mysteries..

Gtr1
e|----------0---------------1---------------0---------------1------------------|
B|----------1---------------1---------------1---------------1------------------|
G|----------0---------------2---------------0---------------2------------------|
D|----------2---------------3---------------2---------------3------------------|
A|----------0---------------3---------------0---------------3------------------|
E|--------------------------1-------------------------------1------------------|
Gtr2
e|------1-0---------------0-5-----3-----1-0---------------0-5-----3------------|
B|--------------------0-1-----------------------------0-1----------------------|
G|------------------2-------------------------------2--------------------------|
D|----------------2-------------------------------2----------------------------|
A|----------0-2-3---------------------------0-2-3------------------------------|
E|-----------------------------------------------------------------------------|
      mysteries..                        

Gtr1
e|----------x-------x---x---3--------------------------------------------------|
B|----------0-------1---3---3--------------------------------------------------|
G|----------0-------0---0---0--------------------------------------------------|
D|----------0-------0---0---0--------------------------------------------------|
A|----------2-------2---2---2--------------------------------------------------|
E|----------3-------3---3---3--------------------------------------------------|
Gtr2
e|------1-0-----------------------------7--------------------------------------|
B|----------0-------1---3-----------------8-------------8----------------------|
G|--------------------------0---------------9-------------9--------------------|
D|----------------------------------------------------------10-----------------|
A|-----------------------------------------------------------------------------|
E|-----------------------------------------------------------------------------|
        yeah...

Gtr1
e|-------------------------------|
B|-------------------------------|
G|-------------------------------|
D|-------------------------------|
A|-------------------------------|
E|-------------------------------|
Gtr2
e|-------------------------------|
B|------0------------------------|
G|--------0-------------0--------|
D|----------2-------------2------|
A|--------------------------2----|
E|-------------------------------|

                                                                               
Gtr1                                                                           
e|----------0---------------3---------------0---------------1------------------|
B|----------1---------------3---------------1---------------1------------------|
G|----------0---------------0---------------0---------------2------------------|
D|----------2---------------0---------------2---------------3------------------|
A|----------3---------------2---------------0---------------3------------------|8x
E|--------------------------3-------------------------------1------------------|
Gtr2                                                                            
e|----------0---------------x-----------x---0----------------------------------|
B|----------1---------------8-----------10--1---------------1------------------|
G|----------0---------------0-----------0---0---------------2------------------|
D|----------2---------------9-----------9---2---------------3------------------|
A|----------3---------------10----------10--0---------------0------------------|8x
E|--------------------------x-----------x--------------------------------------|
   **play above 8x for "standing on the edge of me.." and last chorus until end.

Gtr1 and Gtr2
e|-------------0---------------------------------------------------------------|
B|-----end-on--1---------------------------------------------------------------|
G|-------------0---------------------------------------------------------------|
D|-------------2---------------------------------------------------------------|
A|-------------3---------------------------------------------------------------|
E|-----------------------------------------------------------------------------|
you're a mystery.
Related for On Fire Live tab
Advertisement will be closed in 10 seconds