Guitaretab - guitar tabs
Song name
# A B C D E F G H I J K L M N O P Q R S T U V W X Y Z

Switchfoot - The Setting Sun tab

intro: guitar 1
e-555-5-------------------------------------------------------------------->
B----3-3------------------------------------------------------------------->
G------/666-----7776-------------------666-----7776------------------------>
D----------9-7-5----974-5-45-4-5-4b-2-0---9-7-5----974-5-45-4-5-45-4-5-45\->
A--------------------------------------00~~-------------------------------->
D-------------------------------------------------------------------------->

intro: guitar 2
e-------------------------------------------------------------------------->
B-------------------------------------------------------------------------->
G---------6-666666----------4444444444444-666666---------44444444444444444->
D---------7-777777-2-222222/5555555555555-777777-2-22222/55555555555555555->
A---------7-777777-2-222222/5555555555555-777777-2-22222/55555555555555555->
D---------7-777777-2-222222/5555555555555-777777-2-22222/55555555555555555->

intro: guitar 1
e----------------------------------------->
B----------------------------------------->
G-666-----7776---------------------------->
D----9-7-5----974-5-45-4-5-4b-2-0--------->
A--------------------------------0-------->
D---------------------------------0~~----->

intro: guitar 2
e----------------------------------------->
B----------------------------------------->
G-666666---------44444444444444444-------->
D-777777-2-22222/555555555555555550~~----->
A-777777-2-22222/555555555555555550~~----->
D-777777-2-22222/555555555555555550~~----->

verse 1: guitar 1
e--------------------------------------------------------------------------- | \
B-------------------------------6--------------5-2h3p2-3-2-3-2->------------ |
G------------------------4-4-44---7-7-6h7p6-4-2----------------------------- | |_________
D-------------------------------------------------------------->          -- |
A--------------------------------------------------------------------------- | make this-/
D--------------------------------------------------------------------------- | match to
                                                           ____this
verse 1: guitar 2          |______________________|_______/
e-------------------------------------------------->
B-------------------------------------------------->
G---------------6xxx6xx6xx6------------6xxxxxxxxxx->
D-0xxxxxx5xxxxxx4xxx4xx4xx42xxxxxxxxxx/7xxxxxxxxxx->
A-0xxxxxx5xxxxxx2xxx2xx2xx22xxxxxxxxxx/7xxxxxxxxxx->
D-0xxxxxx5xxxxxx-----------2xxxxxxxxxx/7xxxxxxxxxx->
Iíve got a wound that doesnít heal Burning out again Burning out again

verse 1: guitar 1
e---------------------------------------------------------->
B-------------------3--2h3p2h3p2~~------------------------->
G----------------------------------0-0---0-0-6-6h7p6h7p6-6->
D--------------------------------2-----4------------------->
A---------------------------------------------------------->
D---------------------------------------------------------->

verse 1: guitar 2
e---------------------------------------------------------->
B---------------------------------------------------------->
G-------------------6xxx6xx6xx6--------------6xxxxxxxxxxxx->
D-0xxxxxxxx5xxxxxxxx4xxx4xx4xx42xxxxxxxxxxxx/7xxxxxxxxxxxx->
A-0xxxxxxxx5xxxxxxxx2xxx2xx2xx22xxxxxxxxxxxx/7xxxxxxxxxxxx->
D-0xxxxxxxx5xxxxxxxx-----------2xxxxxxxxxxxx/7xxxxxxxxxxxx->
Iím not sure which of me is real Iím alone again Burning out again

pre-chorus: guitar 2
e----------------------->
B----------------------->
G-5~~-------4~~--------->
D-3~~-------5~~--------->
A-3~~-------5~~--------->
D-3~~-------5~~--------->
My hopeís run underneath it all The day that Iíll be home

chorus: guitar 1
e-(5/15)-\5-\3~~------------------------8/10\8\2------------------------->
B--------------------------------------------------3~~------------------->
G------------------------------------------------------------------------>
D------------------------------------------------------------------------>
A------------------------------------------------------------------------>
D------------------------------------------------------------------------>

chorus: guitar 2
e------------------------------------------------------------------------>
B-------------------------------3333333-------------------------33333333->
G-------6666666-----------------2222222-6666666-----------------22222222->
D-------7777777-2222222-9999999-0000000-7777777-2222222-9999999-00000000->
A-------7777777-2222222-9999999-0000000-7777777-2222222-9999999-00000000->
D-------7777777-2222222-9999999-0000000-7777777-2222222-9999999-00000000->
It wonít be long, I belong somewhere past the setting sun Finally free, Finally strong 
back where I belong

chorus: guitar 1
e------------------------------------------------------------------------>
B------------------------------------------------------------------------>
G-/666------7776---------------------666-----7776------------------------>
D-----9-7-5-----974-5-45-4-5-4b-2-0-----9-7-5----974-5-45-4-5-4b-2-0----->
A----------------------------------0--------------------------------0---->
D-----------------------------------0~~------------------------------0~~->
[ Tab from: http://www.guitaretab.com/s/switchfoot/66044.html ]
chorus: guitar 2
e------------------------------------------------------------------------>
B-------------------------33333333--------------------------3333333333~~->
G-6666666----------444444-22222222-66666666---------4444444-2222222222~~->
D-7777777-22222222/555555-00000000-77777777-2222222/5555555-0000000000~~->
A-7777777-22222222/555555-00000000-77777777-2222222/5555555-0000000000~~->
D-7777777-22222222/555555-00000000-77777777-2222222/5555555-0000000000~~->
yeah-ahhhh ahhh-yeah               yeah-ahhhh ahhh-yeah


verse 2: guitar 1
e---------5-7~~--------------------------------------------3~~-3~~->
B----------------------------------------------10-8~~------3~~-2~~->
G-------------------4---6--6h7-6--------------9------------0~~-3~~->
D--------------------------------------------7--------------------->
A------------------------------------------------------------------>
D------------------------------------------------------------------>

verse 2: guitar 2
e---------------------------------------------------------->
B---------------------------------------------------------->
G-------------------6xxx6xx6xx6--------------6xxxxxxxxxxxx->
D-12xxxxxxx5xxxxxxxx4xxx4xx4xx42xxxxxxxxxxxx/7xxxxxxxxxxxx->
A-12xxxxxxx5xxxxxxxx2xxx2xx2xx22xxxxxxxxxxxx/7xxxxxxxxxxxx->
D-12xxxxxxx5xxxxxxxx-----------2xxxxxxxxxxxx/7xxxxxxxxxxxx->
Theyíre selling shares of me again, Iím not buying it, Iím not buying it

verse 1: guitar 1
e-------------5-7------------------------------------------>
B----------5-7---7~~-----------5-7-5~~--------------------->
G-----------------------------------------7-9-7-9-7-77-6--->
D--------------------------------------9-9-9--------------->
A---------------------------------------------------------->
D---------------------------------------------------------->

verse 2: guitar 2
e---------------------------------------------------------->
B---------------------------------------------------------->
G-------------------6xxx6xx6xx6--------------6xxxxxxxxxxxx->
D-0xxxxxxxx5xxxxxxxx4xxx4xx4xx42xxxxxxxxxxxx/7xxxxxxxxxxxx->
A-0xxxxxxxx5xxxxxxxx2xxx2xx2xx22xxxxxxxxxxxx/7xxxxxxxxxxxx->
D-0xxxxxxxx5xxxxxxxx-----------2xxxxxxxxxxxx/7xxxxxxxxxxxx->
My wound goes deeper than the skin, Thereís no hiding it, So Iím not trying it

  repeat pre-chorus
  repeat chorus

fill: guitar 2
e-------------------------------------------------------------------------->
B-------------------------------------------------------------------------->
G-------------------------------------------------------------------------->
D-12121212\7777777/101010101010101010/12121212\7777777/101010101010101010-->
A-12121212\7777777/101010101010101010/12121212\7777777/101010101010101010-->
D-12121212\7777777/101010101010101010/12121212\7777777/101010101010101010-->
yeah-ahhhh ahhh-yeah                    yeah-ahhhh ahhh-yeah

bridge: guitar 1                              gt. 2 come in
e----------------------------------------------------00000----------------->
B----------------------------------------------------00000-7~~------------->
G-5-5-555-6-6-6-7-6-5-5-555-6-6-6-7-6-5-5-555-4-4444-66666-7~~-5~~--------->
D-5-5-555-6-6-6-7-6-5-5-555-6-6-6-7-6-5-5-555-5-5555-77777-7~~-5~~-5xxxxxx->
A-3-3-333-4-4-4-5-4-3-3-333-4-4-4-5-4-3-3-333-5-5555-77777-5~~-3~~-5xxxxxx->
D---------------------------------------------5-5555-77777-----5~~-5xxxxxx->
let the weak say I am strong It wonít be long Let the right say I was wrong It wonít be 
Let us find where we belong, beyond this setting sun, beyond this setting sun yeah-ahhh ahh-yeah

last chorus: guitar 1
e--\9-\7~~------------------------/9-/7~~-------------------------->
B------------------------------------------------------------------>
G------------------------------------------------------------------>
D------------------------------------------------------------------>
A------------------------------------------------------------------>
D------------------------------------------------------------------>

last chorus: guitar 2
e------------------------------------------------------------------>
B-------------------------3333333-------------------------3333333-->
G-6666666-----------------2222222-6666666-----------------2222222-->
D-7777777-2222222-9999999-0000000-7777777-2222222-9999999-0000000-->
A-7777777-2222222-9999999-0000000-7777777-2222222-9999999-0000000-->
D-7777777-2222222-9999999-0000000-7777777-2222222-9999999-0000000-->
It wonít be long, I belong somewhere past the setting sun finally free, finally strong 
back where I belong

last chorus: guitar 1
e----------------------------------------------------------2~~--->
B---------------------------------------------------------------->
G-/666------7776---------------------666-----7776---------------->
D-----9-7-5-----974-5-45-4-5-4b-2-0-----9-7-5-----974~~---------->
A----------------------------------00~~-------------------------->
D---------------------------------------------------------------->

last chorus: guitar 2
e---------------------------------------------------------->
B---------------------------------------------------------->
G-6666666----------444444444444444-66666666---------4~~---->
D-7777777-22222222/555555555555555-77777777-2222222/5~~---->
A-7777777-22222222/555555555555555-77777777-2222222/5~~---->
D-7777777-22222222/555555555555555-77777777-2222222/5~~---->
yeah-ahhhh ahhh-yeah               yeah-ahhhh ahhh-yeah
Related for The Setting Sun tab