Guitaretab - guitar tabs
Song name
# A B C D E F G H I J K L M N O P Q R S T U V W X Y Z

Switchfoot - Nothing Is Sound tab

01. Lonely Nation
02. Stars
03. Happy Is A Yuppie Word
04. The Shadow Proves The Sunshine
05. Easier Than Love
06. The Blues
07. The Setting Sun
08. Politicians
09. Golden
10. The Fatal Wound
11. We Are One Tonight
12. Daisy

============================================================================

Tabbed by: aquaknight3

	This was a particularly fun album to tab.  The music is awesome.  I
hope I was able to get everything and put it down here for you.  Now, a few
things:  please note that guitar 1 in one song will not always be guitar 1
in another song.  I tabbed these at different times and put guitar 1 as the
first guitar I heard.  Also, the tunings for the guitars will vary.  ďWe Are
One TonightĒ has a very weird tuning that I had to make up so I could tab
the song correctly.  For 2 measures I put chord names over the measures to
give you an idea on how the tuning works.  I have put the tunings before
each song and lyrics below the correct measures of the tab.  I have tried to
differentiate the areas where two or three guitars play at one time by
encasing them with dotted lines.  Well, I think thatís it, and I hope you
will enjoy!!

============================================================================

01. Lonely Nation

Tuning: Guitar 1- Standard
        Guitar 2- Drop D

               intro: guitar 1
e-12~~--------------------------------------------------------------------->
B--------------3-5-0--3-5-0-3-3-5-0--3-5-0-3-3-5-0--3-5-0-3-3-5-0--3-5-0-3->
G-9~-h12~~----------------------------------------------------------------->
D-------------------------------------------------------------------------->
A-------------------------------------------------------------------------->
E-------------------------------------------------------------------------->
|                                                                          |
|       intro: guitar 2                                                    |
e-------------------------------------------------------------------------->
B-------------------------------------------------------------------------->
G-------------------------------------------------------------------------->
D-------2xxx0x2x-2xx0x2x-2x-xxxx0x-2x-xxxx0x-2x-xxxx0x-2x-xxxx0x-2x-xxxx0x->
A-------2xxx0x2x-2xx0x2x-2x-xxxx0x-2x-xxxx0x-2x-xxxx0x-2x-xxxx0x-2x-xxxx0x->
D-------2xxx0x2x-2xx0x2x-2x-xxxx0x-2x-xxxx0x-2x-xxxx0x-2x-xxxx0x-2x-xxxx0x->

verse 1: guitar 2
e-------------------------------------------------------------------------->
B-------------------------------------------------------------------------->
G-------------------------------------------------------------------------->
D-2x-xxxx0x-2x-xxx0x-2x-xxx0x-2x-xxx0x-2x-xxx0x-2x-xxx0x-2x-xxxx0x-10xxxxx->
A-2x-xxxx0x-2x-xxx0x-2x-xxx0x-2x-xxx0x-2x-xxx0x-2x-xxx0x-2x-xxxx0x-10xxxxx->
D-2x-xxxx0x-2x-xxx0x-2x-xxx0x-2x-xxx0x-2x-xxx0x-2x-xxx0x-2x-xxxx0x-10xxxxx->
She turns like the ocean She tells no emotion Sheís been gunning down the
fight

verse 1: guitar 2
 (\/______________________guitar 1 repeat intro_____________________\/)
e-------------------------------------------------------------------------->
B-------------------------------------------------------------------------->
G-------------------------------------------------------------------------->
D-2x-xxx0x-2x-xxx0x-2x-xxx0x-2x-xxx0x-2x-xxx0x-2x-xxx0x-2x-xx0x-10-9~10-+++>
A-2x-xxx0x-2x-xxx0x-2x-xxx0x-2x-xxx0x-2x-xxx0x-2x-xxx0x-2x-xx0x-10-9~10-+++>
D-2x-xxx0x-2x-xxx0x-2x-xxx0x-2x-xxx0x-2x-xxx0x-2x-xxx0x-2x-xx0x-10-9~10-+++>
Sheís just reminiscing Blood, sweat, and one thingís missing Sheís been
breaking up inside, inside

chorus: guitar 2 (A= 10th fret, C= 12th fret)
e----------2-----3------------------------------2-----3-------------------->
B----------3-----3------------------------------3-----3-------------------->
G--7----7----------C-----C--C---------7-----7------------C-----C--C-------->
D-57+++57-0--+++0-AC-+++AC-AC-+++A-C-57-+++57--0--+++0--AC-+++AC-AC-+++A-C->
A-5-+++5--0--+++0-A--+++A--A--+++A-C-5--+++5---0--+++0--A--+++A--A--+++A-C->
D-5-+++5--0--+++0-A--+++A--A--+++A-C-5--+++5---0--+++0--A--+++A--A--+++A-C->
Singing without tongues, screaming without lungs I want more than my lonely
nation, I want more than my lonely nation Desperate we are young, Separate
we are one I want more than my desperation, I want more than my lonely
nation

fill: repeat intro pt. 2 (oh...oh-oh... oh...oh-oh...)

verse 2: guitar 1
e-------------------------------------------------------------------------->
B-555-0-3-55-8-555-0-3-55-8-555-0-3-55-8-555-0-3-555-0-3-55-8-555-0-3-55--->
G-------------------------------------------------------------------------->
D-------------------------------------------------------------------------->
A-------------------------------------------------------------------------->
E-------------------------------------------------------------------------->
|                                                                          |
|verse 2: guitar 2                                                         |
e-------------------------------------------------------------------------->
B-------------------------------------------------------------------------->
G--------------------------------------------------------------------9~~--->
D-2x-xxx0x-2x-xxx0x-2x-xxx0x-2x-xxx0x-2x-xxx0x-2x-xxx0x-2x-xxx0x-9~~-9~~--->
A-2x-xxx0x-2x-xxx0x-2x-xxx0x-2x-xxx0x-2x-xxx0x-2x-xxx0x-2x-xxx0x-9~~------->
D-2x-xxx0x-2x-xxx0x-2x-xxx0x-2x-xxx0x-2x-xxx0x-2x-xxx0x-2x-xxx0x-9~~------->
We are the target market We set the corporate target We are slaves of what
we want Weíre just

verse 2: guitar 1
e-------------------------------------------------------------------------->
B-55-0-3-55-8-55-0-3-55-8-55-0-3-55-8-55-0-3-55-0-3-55-8-55-0-3-55--------->
G-----------------------------------------------------------------111214++->
D-------------------------------------------------------------------------->
A-------------------------------------------------------------------------->
E-------------------------------------------------------------------------->
|                                                                          |
|verse 2: guitar 2                                                         |
e-------------------------------------------------------------------------->
B-------------------------------------------------------------------------->
G-------------------------------------------------------------------------->
D-2x-xxx0x-2x-xxx0x-2x-xxx0x-2x-xxx0x-2x-xxx0x-2x-xxx0x-2x-xxx0x-999999+++->
A-2x-xxx0x-2x-xxx0x-2x-xxx0x-2x-xxx0x-2x-xxx0x-2x-xxx0x-2x-xxx0x-999999+++->
D-2x-xxx0x-2x-xxx0x-2x-xxx0x-2x-xxx0x-2x-xxx0x-2x-xxx0x-2x-xxx0x-999999+++->
not amused and weíre just used to bad news and We are slaves of what we want

REPEAT CHORUS

fill 2: guitar 1
/e-----3333/AAAA-7777----3333/CCCC-7777\->\
|B-1111--------------1111---------------->|
|G--------------------------------------->|
|D--------------------------------------->|
|A--------------------------------------->|
|E--------------------------------------->/
|                                        /
|fill 2: guitar 2                       /
|e----------------------------->       /
|B----------------------------->      /
|G-444444------555555---------->     /
|D-444444------555555---------->    /
|A-222222------333333---------->   /
\D----------------------------->__/
oh-oh-oh-OHHHHHHHHHHHHHH

bridge: guitar 1
e-------------------------------------------------------------------------->
B-------------------------------------------------------------------------->
G-------------------------------------------------------------------------->
D----------------------14\2/14--------------------------------------------->
A-------------------------------------------------------------------------->
E-------------------------------------------------------------------------->
|                                                                          |
|bridge: guitar 2                                                          |
e-------------------------------------------------------------------------->
B------------------3333----------3335555----------------------------------->
G------------------2222----------2224444-----2----2----2--------2-----2222->
D-2+++-+++-+++-+++-0000-2+++-+++-0002222-022-0-22-0-22-0-22-202-0-202-0000->
A-2+++-+++-+++-+++------2+++-+++---------022---22---22---22-202---202------>
D-2+++-+++-+++-+++------2+++-+++---------022---22---22---22-202---202------>
Lonely, lonely

bridge: guitar 1 (F= 15th fret, A= 10th fret)
e-FFFFFFF-AAAA-777777-FFFFFFF-AAAA-777777-FFFFFFF-AAAA-777777-->\
B--------------------------------------------------------------> \_____
G--------------------------------------------------------------> repeat\
D-------------------------------------------------------------->       |
A-------------------------------------------------------------->        \
E-------------------------------------------------------------->         \
|                                                                         \
|bridge: guitar 2                                               2nd        |
e--------------------------------------------------------------|----------->
B--------------------------------------------------------------|----------->
G--------------------------------------------------------------|----------->
D--------------------------------------------------------------|-9999-AAAA->
A--------------------------------------------------------------|-9999-AAAA->
D--------------------------------------------------------------|-9999-AAAA->
Donít leave me hollow Iím tired donít leave me hollow Iím tired of feeling
low, of feeling hollow Iím tired of feeling low, of feeling hollow Iím tired
of feeling low, of feeling hollow Iím tired of feeling low, of feeling
hollow, of feeling hollow, of feeling hollow

REPEAT CHORUS

outro: guitar 2
e-------------------------------------------->
B----------3-------3------------------------->
G----------2-------2-----2-------2---5~~----->
D-0-2202202022022020-0-2-0-2-0-2-0-2-5~~----->
A-0-2202202-2202202--0-2---2-0-2---2-3~~----->
D-0-2202202-2202202--0-2---2-0-2---2--------->
I want more than my lonely nation I want more than my lonely nation oh-ohhhhh

============================================================================

02. Stars

Tuning: Guitar 1- Drop D
        Guitar 2- Drop D

intro: guitar 1  play a total of 4x
e------------------------------------------------------------------------>
B------------------------------------------------------------------------>
G------------------------------------------------------------------------>
D-0-12-0-11-12-00-16-000-14-00-17-21-19-0-12-0-11-12-00-16-000-140141414->
A-0-12-0-12-12-00-16-000-14-00-17-21-19-0-12-0-12-12-00-16-000-140141414->
D-0-12-0-11-12-00-16-000-14-00-17-21-19-0-12-0-11-12-00-16-000-140141414->

intro: guitar 1
e------------------------------------------------------------------->
B------------------------------------------------------------------->
G------------------------------------------------------------------->
D--------4---------------4---------------4---------------4---------->
A----45------7--45---45------7-777---45------7--45---45------7-777-->
D-020--04-045-02--020--04-045-----020--04-045-02--020--04-045------->

verse 1: guitar 1
e------------------------------------------------------------------------->
B--------------------------3-3-33-3-3-3-3-33-3-3----------3-3-33-3-2-222-->
G-----------------7-7-77-7-2-2-22-2-2-5-5-55-5-5-7-7-77-7-2-2-22-2-2-222-->
D-0-000-0-00-0-00-7-7-77-7-0-0-00-0-0-5-5-55-5-5-7-7-77-7-2-2-22-2-2-222-->
A-0-000-0-00-0-00-5-5-55-5-0-0-00-0-0-3-3-33-3-3-5-5-55-5-0-0-00-0-0-000-->
D-0-000-0-00-0-00-5-5-55-5-0-0-00-0-0------------5-5-55-5----------------->
Maybe Iíve been the problem Maybe Iím the one to blame But even when I turn
it off and blame myself The outcome feels the same Iíve been thinkiní maybe

verse 1: guitar 2 (guitar 1 repeat verse 1 riff)
e------------------------------------------------------------------------->
B---------------------0003--------00001111111111-------------------------->
G-22222222222222222222----22222222---------------00000000----------------->
D---------------------------------------------------------22222222222222-->
A------------------------------------------------------------------------->
D------------------------------------------------------------------------->
Iíve been partly cloudy Maybe Iím the chance of rain and Maybe Iím overcast
and Maybe all my luckís washed down the drain Iíve been thinkiní Ďbout

verse 1: guitar 1
e----------------------------->
B----------------------------->
G--------2~~----4~~----5~~---->
D-5~~----2~~----4~~----5~~---->
A-5~~----0~~----2~~----3~~---->
D-5~~------------------------->
Everyone Everyone you look so lonely

chorus: guitar 1
e-------------------------------------------------------------------------->
B-------------------------------------------------------------------------->
G----------------------555555-----------------------------------------2~~-->
D-000000000-5555555555-555555-555555--------4--------555555555-222222-2~~-->
A-000000000-5555555555-333333-555555----45------7777-555555555-222222-0~~-->
D-000000000-5555555555--------555555-020--04-045-----555555555-222222------>
|                                                                          |
|chorus: guitar 2                                                          |
e-------------------------------------------------------------------------->
B-------------------------------------------------------------------------->
G-------------------------------------------------------------------------->
D-444220----444220-----4---2-0-----------------------444220----4--2-0------>
A-------000-------000--------------------------------------000------------->
D------------------------------555555---------------------------------5~~-->
But when I look at the Stars when I look at the Stars when I look at the
Stars I see someone else when I look at the Stars the Stars I feel like
myself

chorus: guitar 1
e---------------------------------->
B---------------------------------->
G---------------------------------->
D--------4---------------4--------->
A----45------7--45---45------7-777->
D-020--04-045-02--020--04-045------>

verse 2: guitar 2 (guitar 1 repeat verse 1 riff twice) repeat this \/
e------------------------------------------------------------------------->
B---------------------0003--------00001111111111-------------------------->
G-22222222222222222222----22222222---------------00000000----------------->
D---------------------------------------------------------2222222222222--->
A------------------------------------------------------------------------->
D------------------------------------------------------------------------->
Stars looking at a planet watching entropy and pain And maybe start to
wonder how the chaos in our lives could pass as sane Iíve been thinkiní
Ďbout the meaning of resistance Of a hope beyond my own and suddenly the
infinite and penitent begin to look like home Iíve been thinkiní Ďbout

verse 2: guitar 1
e----------------------------->
B----------------------------->
G--------2~~----4~~----5~~---->
D-5~~----2~~----4~~----5~~---->
A-5~~----0~~----2~~----3~~---->
D-5~~------------------------->
Everyone Everyone you look so empty

chorus 2: guitar 1
e-------------------------------------------------------------------------->
B-------------------------------------------------------------------------->
G----------------------555555-----------------------------------------2~~-->
D-000000000-5555555555-555555-555555--------4--------555555555-222222-2~~-->
A-000000000-5555555555-333333-555555----45------7777-555555555-222222-0~~-->
D-000000000-5555555555--------555555-020--04-045-----555555555-222222------>
|                                                                          |
|chorus 2: guitar 2                                                        |
e-------------------------------------------------------------------------->
B-------------------------------------------------------------------------->
G-------------------------------------------------------------------------->
D-444220----444220-000-4---2-0-----------------------444220----4--2-0------>
A-------000------------------------------------------------000------------->
D---------------------------------555555------------------------------5~~-->
But when I look at the Stars when I look at the Stars when I look at the
Stars I  see someone else But when I look at the Stars the Stars feel like
myself Yeah!

bridge: guitar 1
e-------------------------------------------------------------------------->
B-------------------------------------------------------------------------->
G-------------------------------------------------------------------------->
D--------4---------------4---------555-444-777--------4--------555-444-777->
A----45------7--45---45------7-777-555-444-777----45------7777-555-444-777->
D-020--04-045-02--020--04-045------555-444-777-020--04-045-----555-444-777->
the Stars the Stars

bridge: guitar 1
e--------------------------------------------------3~~-->
B--------------------------------------------------3~~-->
G--------2~~-------------------------2~~----4~~----5~~-->
D-5~~----2~~----4~~----5~~----5~~----2~~----4~~----5~~-->
A-5~~----0~~----4~~----5~~----5~~----0~~----2~~----3~~-->
D-5~~-----------4~~----5~~----5~~----------------------->
|                                                       |
|bridge: guitar 2                                       |
e----0~~----9~~-----2-------0~~--0~~---0~~------2--3~~-->
B----------------------0~~-------------------------3~~-->
G------------------------------------------------------->
D------------------------------------------------------->
A------------------------------------------------------->
D------------------------------------------------------->
Everyone Everyone we feel so lonely Everyone yeah Everyone we feel so empty

But when I look at the Stars when I look at the Stars when I look at the

chorus 3: guitar 1
e-33333333------------------------------------------0~~->
B-33333333-88888888-----------------88888888-555555-2~~->
G-55555555-77777777-----------------77777777-444444-2~~->
D-55555555-55555555--------4--------55555555-222222-2~~->
A-33333333-55555555----45------7777-55555555-222222-0~~->
D----------55555555-020--04-045-----55555555-222222----->
Stars I feel like myself when I look at the Stars the Stars I see someone

outro: guitar 1
/e------------------------------------------------------------------------>\
|B------------------------------------------------------------------------>|
|G------------------------------------------------------------------------>|
|D--------4---------------4---------------4---------------4-----------0~~->|
|A----45------7--45---45------7-777---45------7--45---45------7--4-5--0~~->|
|D-020--04-045-02--020--04-045-----020--04-045-02--020--04-045-02-----0~~->|
|                                                                          |
|outro: guitar 2                                                           |
|e-----------------------------------------000----555-333---5-3333-2~-2~~->|
|B--------------------------------------------333---------3--------------->|
|G---------------------------------444-222-------------------------------->|
|D------------------------------------------------------------------------>|
|A------------------------------------------------------------------------>|
\D------------------------------------------------------------------------>/

============================================================================

03. Happy Is A Yuppie Word

Tuning: Guitar 1- Standard
        Guitar 2- Drop D

intro: guitar 1
/e------------------------------------------------------------------------>\
|B------------------------------------------------------------------------>|
|G-5-7/9--57--5-7/9--57--5-7/9--57--5-7/9--57----5-7/9--57--5-7/9--57----->|
|D------7~~-7~~----7~~-7~~----7~~-7~~----5~~-5-7~~----7~~-7~~----5~~-5-7~->|
|A------------------------------------------------------------------------>|
|E------------------------------------------------------------------------>|
|                                                                          |
|intro: guitar 2(R= 10th fret)                                             |
|e------------------------------------------------------------------------>|
|B------------------------------------------------------------------------>|
|G------------------------------------------------------------------------>|
|D-7xx0xxxxx7xx0xxxxx7xx0xxxx7xx0xxx5xx/Rxx\3xxxxx7xx0xxxx5xx/Rxx\3xxxxxx->|
|A-7xx0xxxxx7xx0xxxxx7xx0xxxx7xx0xxx5xx/Rxx\3xxxxx7xx0xxxx5xx/Rxx\3xxxxxx->|
\D-7xx0xxxxx7xx0xxxxx7xx0xxxx7xx0xxx5xx/Rxx\3xxxxx7xx0xxxx5xx/Rxx\3xxxxxx->/

verse 1: guitar 1
/e------------------------------------------------------------------->\
|B-------------------------------------10---------------------5------>|
|G----------------5h7-7~~----------------12-9------------------5h7~~->|
|D-------------------------------------------7h9bbbbb---------------->|
|A------------------------------------------------------------------->|
|E------------------------------------------------------------------->|
|                                                                     |
|verse 1: guitar 2(R= 10th fret)                                      |
|e------------------------------------------------------------------->|
|B------------------------------------------------------------------->|
|G------------------------------------------------------------------->|
|D-7xx0xxx5xx/Rxx\3xxxxx7xx0xxxx5xx/Rxx\3xxxxxx7xx0xxx5xx/Rxx\3xxxxx->|
|A-7xx0xxx5xx/Rxx\3xxxxx7xx0xxxx5xx/Rxx\3xxxxxx7xx0xxx5xx/Rxx\3xxxxx->|
\D-7xx0xxx5xx/Rxx\3xxxxx7xx0xxxx5xx/Rxx\3xxxxxx7xx0xxx5xx/Rxx\3xxxxx->/
everyone dies everyone loves a fight nothing is sound nothing is right side
right evening comes and the sun goes down in red

verse 1: guitar 1
/e-------------------------------------7~->\
|B---------------------------------------->|
|G-------------------000----022----------->|
|D-------------------333-222-------------->|
|A---------------------------------------->|
|E---------------------------------------->|
|                                          |
|verse 1: guitar 2                         |
|e---------------------------------------->|
|B---------------------------------------->|
|G---------------------------------------->|
|D-7xx0xxx5xx/Rxx\3xxxxx2xxxxxx3xxxxxx5~-->|
|A-7xx0xxx5xx/Rxx\3xxxxx2xxxxxx3xxxxxx5~-->|
\D-7xx0xxx5xx/Rxx\3xxxxx2xxxxxx3xxxxxx5~-->/
nothing is cool when will all the fighting end? when will all the fighting
end?

chorus: guitar 1
/e-4445----------2223----------4445----------2223---------->\
|B--------------------------------------------------------->|
|G--------------------------------------------------------->|
|D--------------------------------------------------------->|
|A--------------------------------------------------------->|
|E--------------------------------------------------------->|
|                                                           |
|chorus: guitar 2                                           |
|e--------------------------------------------------------->|
|B--------333333--------333333--------333333--------222222->|
|G-222222-222222--------222222-222222-222222--------222222->|
|D-222222-000000-555555-000000-222222-000000-555555-000000->|
|A-000000--------555555--------000000--------555555-------->|
\D---------------555555----------------------555555-------->/
happy is a yuppie word nothing in the world could fail me now itís empty as
an argument Iím running down a life that wonít cash out

fill: guitar 1
/e--------------------->\
|B--------------------->|
|G-5-7/9--57--5-7/9---->|
|D------7~~-7~~----7~~->|
|A--------------------->|
|E--------------------->|
|                       |
|fill: guitar 2         |
|e--------------------->|
|B--------------------->|
|G--------------------->|
|D-7xx0xxxxx7xx0xxxxx-->|
|A-7xx0xxxxx7xx0xxxxx-->|
\D-7xx0xxxxx7xx0xxxxx-->/

verse 2: guitar 1
/e------------------------------------------------------------------------>\
|B-----------------------------------------------------------10----------->|
|G-------------------------------------------------------------12-9------->|
|D-----------------------------------------------------------------7h9bbb->|
|A------------------------------------------------------------------------>|
|E------------------------------------------------------------------------>|
|                                                                          |
|verse 1: guitar 2(R= 10th fret)                                           |
|e------------------------------------------------------------------------>|
|B------------------------------------------------------------------------>|
|G------------------------------------------------------------------------>|
|D-7770---555/RRR\3-----7770xxxx555/RRR\3xxxxxx7770xxx555/RRR\3xxxxxx----->|
|A-7770---555/RRR\3-----7770xxxx555/RRR\3xxxxxx7770xxx555/RRR\3xxxxxx----->|
\D-7770---555/RRR\3-----7770xxxx555/RRR\3xxxxxx7770xxx555/RRR\3xxxxxx----->/
everything fails everything runs its course a time and a place for all of
this love and war everyone buys, everyoneís got a price

verse 2: guitar 1
/e----------------555555-33333-44444-555555---->\
|B--------------------------------------------->|
|G--------------------------------------------->|
|D--------------------------------------------->|
|A--------------------------------------------->|
|E--------------------------------------------->|
|                                               |
|verse 2: guitar 2(R= 10th fret)                |
|e--------------------------------------------->|
|B--------------------------------------------->|
|G--------------------------------------------->|
|D-7770xxx555/RRR\333333-222222-3333333-55555-->|
|A-7770xxx555/RRR\333333-222222-3333333-55555-->|
\D-7770xxx555/RRR\333333-222222-3333333-55555-->/
nothing is new, when will all the failures rise?  when will all the failures
rise, rise

REPEAT CHORUS twice with these lyrics:
happy is a yuppie word nothing in the world could fail me now as empty as an
argument Iím running down a life that wonít cash out happy is a yuppie word
blessed is the man whoís lost it all happy is a yuppie word whoa

bridge:
looking for an orphanage Iím looking for a bridge I canít burn down I donít
believe the emptiness Iím looking for the kingdom coming down 

bridge: guitar 1
/e-7778757787878-15~----7778757787878-15-15-15-15-15---------------------->\
|B------------------------------------------------------------------------>|
|G------------------------------------------------------------------------>|
|D------------------------------------------------------------------------>|
|A------------------------------------------------------------------------>|
|E------------------------------------------------------------------------>|
|                                             ___________________________  |
|bridge: guitar 2                            /   get louder and louder   \ |
|e------------------------------------------------------------------------>|
|B------------------------------------------------------------------------>|
|G------------------------------------------------------------------------>|
|D-------------------------------------------1010101010101010101010101010->|
|A-------------------------------------------1010101010101010101010101010->|
\D-------------------------------------------1010101010101010101010101010->/
everything is meaningless I want more than simple cash can buy happy is a
yuppie word happy is a yuppie word happy is a yuppie word happy is a yuppie

repeat chorus with these lyrics:
nothing is sound nothing is sound nothing is sound nothing is sound nothing
is sound nothing is sound nothing is sound

repeat chorus with these lyrics:
happy is a yuppie word nothing in the world could fail me now happy is a
yuppie word whoa

outro: guitar 1
/e-------------------------------------->\
|B-------------------------------------->|
|G-579------579------579----5-7-9------->|
|D----7~~------7~~------7~~-------7~~--->|
|A-------------------------------------->|
|E-------------------------------------->|
|                                        |
|outro: guitar 2                         |
|e-------------------------------------->|
|B-------------------------------------->|
|G-------------------------------------->|
|D-7770~~---7770~~---7770~~-7-7-7-0~~--->|
|A-7770~~---7770~~---7770~~-7-7-7-0~~--->|
\D-7770~~---7770~~---7770~~-7-7-7-0~~--->/
so come down yeah, so come down yeah, so come down yeah

============================================================================

04. The Shadow Proves The Sunshine

Tuning: Guitar 1- Standard

(riff 1) verse 1: guitar 1 (really soft) repeat
e------------------------------------------------------------------>
B------------------------------------------------------------------>
G------------------------------------------------------------------>
D-2-222-22-------------------------------------------------1-1-111->
A---------2-222-22-4-4-444-2-2-222-0-0-000-2-2-222-4-4-444--------->
E------------------------------------------------------------------>
Sunshine, won't you be my mother Sunshine, come and help me sing My heart is
darker than these oceans My heart is frozen underneath We are 

(riff 2) chorus: guitar 1 (still soft)
e------------------------------------------------------------------>
B------------------------------------------------------------------>
G------------------------------------------------------------------>
D-2-2-222-2-22----------------------------------------------------->
A--------2-----4-4-444-2-2-22-0-0-02-2-22-0-0-02-2-222------------->
E------------------------------------------------------------------>
crooked souls trying to stay up straight, Dry eyes in the pouring rain well
The shadow proves the sunshine The shadow proves the sunshine

chorus: repeat riff 2
 Two scared little runaways Hold fast to the break of day light where The
 shadow proves the sunshine The shadow proves the sunshine

verse 2: repeat riff 1
 Oh Lord, why did you forsake me?  Oh Lord, don't be far away, away Storm
 clouds gathering beside me Please Lord, don't look the other way

chorus: repeat riff 2
 Crooked souls trying to stay up straight Dry eyes in the pouring rain well
 The shadow proves the sunshine The shadow proves the sunshine

chorus: repeat riff 2
 Two scared little runaways Hold fast to the break of day light where The
 shadow proves the sunshine The shadow proves the sunshine

bridge: guitar 1 (not softly)
e-------------------------------------2~--------------2~---------->
B-55~-------------55~-------------55~-2~----------55~-2~---------->
G-44~-2~--6~--2~--44~-2~--6~--2~--44~-----6~--2~--44~-----6~--2~-->
D-22~-2~--6~--2~--22~-2~--6~--2~--22~-4~--6~--2~--22~-4~--6~--2~-->
A-----0~--4~--0~--22~-0~--4~--0~--22~-4~--4~--0~--22~-4~--4~--0~-->
E-----------------00~-------------00~-2~----------00~-2~---------->
Yeah Yeah, shine on me Yeah Yeah, shine on me Yeah Yeah, shine on me Yeah
Yeah

bridge: repeat riff 2
 oh, oh, oh

chorus: repeat riff 2
 Crooked souls trying to stay up straight Dry eyes in the pouring rain well
 The shadow proves the sunshine The shadow proves the sunshine

chorus: repeat riff 2
 Two scared little runaways Hold fast to the break of day light where The
 shadow proves the sunshine The shadow proves the sunshine

bridge/outro: guitar 1 (not softly)
e-------------------------------------2~--------------2~------------->
B-55~-------------55~-------------55~-2~----------55~-2~----------5~->
G-44~-2~--6~--2~--44~-2~--6~--2~--44~-----6~--2~--44~-----6~--2~--4~->
D-22~-2~--6~--2~--22~-2~--6~--2~--22~-4~--6~--2~--22~-4~--6~--2~--2~->
A-----0~--4~--0~--22~-0~--4~--0~--22~-4~--4~--0~--22~-4~--4~--0~--2~->
E-----------------00~-------------00~-2~----------00~-2~----------0~->
Yeah Yeah, shine on me Yeah Yeah, shine on me Yeah Yeah, shine on me Shine
on me, the shadow proves the sunshine

============================================================================

05. Easier Than Love

Tuning: Guitar 1- Drop D

intro: guitar 1 (*= bent note)
e-------------------------------------------------------------------------->
B-------------------------------------------------------------------------->
G-/7-7-7-------------7-7-7-------------7-7-7------------------------------->
D-/7-7-797999*9*9*99-7-7-797999*9*9*99-7-7-797999*9*9*99-3-3-333999*9*9*99->
A-/5-5-5555----------5-5-5555----------5-5-5555----------3-3-3335---------->
D---------5-----------------5-----------------5----------3-3-3335---------->
                          lalalalalala      lalalalalalala
verse 1: guitar 1
e------------------------------------------------------------------->
B------------------------------------------------------------------->
G-7-7-7-------------------------------7-7-7------------------------->
D-7-7-797999*9*9*99-3-3-333999*9*9*99-7-7-797999*9*9*99-3-3-333555-->
A-5-5-5555----------3-3-3335----------5-5-5555----------3-3-333555-->
D--------5----------3-3-3335-----------------5----------3-3-333555-->
Sex is currency She sells cars, She sells magazines Addictive bittersweet,
clap your hands, with the hopeless nicotines

verse 1: guitar 1
e-------------------------------------------------------------------->
B-------------------------------------------------------------------->
G-6x-x7xxx/11xxx2xxx7xx6x7xx9xx6xx-6x-x7xxx/11xxx2xxx7xx6x7xx9xx6xx-->
D-6x-x7xxx/11xxx2xxx7xx6x7xx9xx6xx-6x-x7xxx/11xxx2xxx7xx6x7xx9xx6xx-->
A-4x-x5xxx/9-xxx0xxx5xx4x5xx7xx4xx-4x-x5xxx/9-xxx0xxx5xx4x5xx7xx4xx-->
D-------------------------------------------------------------------->
Everyone's a lost romantic, Since our love became a kissing show Everyone's
a cassanova, Come and pass me the mistletoe

pre-chorus: guitar 1
e---------------------->
B---------------------->
G-55554444------------->
D-5555444444445555+++-->
A-3333222244445555+++-->
D---------44445555+++-->
Everyone's been scared to death of dying here alone

chorus: guitar 1
e------------------------------------------------------------------------>
B--3-3--3-3----------------3-3--3-3-------------------------------------->
G--2-2--2-2----7-7--7-7----2-2--2-2----7-7--7-7-------------------------->
D-00000000000557575575755000000000000557575575755/99999777775555555555++->
A-00000000000555555555555000000000000555555555555/99999777775555555555++->
D-00000000000555555555555000000000000555555555555/99999777775555555555++->
She is easier than love It's easier to lie It's easier to fake and smile and
bribe It's easier to leave It's easier to lie It's harder to face ourselves
at night Feeling alone, What have we done? What is the monster we've become?

chorus: guitar 1
e---------------->
B---------------->
G---------------->
D-7777777775555-->
A-7777777775555-->
D-7777777775555-->
Were is my soul? lalalalalalala

fill: guitar 1
e--------------------------------------->
B--------------------------------------->
G--------------------------------------->
D-0-120120999*9*9*990-120120999*9*9*99-->
A-0-1201205---------0-1201205----------->
D-0-1201205---------0-1201205----------->
          lalalalala

verse 2: guitar 1
e------------------------------------------------------------>
B------------------------------------------------------------>
G-7-7x-x7-------------------------7-7x-x7-------------------->
D-7-7x-x7-5-5x-x5-3-3x-x3-2-2x-x2-7-7x-x7-5-5x-x5-3-3x-x3-2-->
A-5-5x-x5-5-5x-x5-3-3x-x3-2-2x-x2-5-5x-x5-5-5x-x5-3-3x-x3-2-->
D---------5-5x-x5-3-3x-x3-2-2x-x2---------5-5x-x5-3-3x-x3-2-->
Sex is industry, The CEO, of corporate policy Skin-deep ministry, Suburban
youth, hailing so-called liberty

verse 2: guitar 1
e-------------------------------------------------------------------->
B-------------------------------------------------------------------->
G-6x-x7xxx/11xxx2xxx7xx6x7xx9xx6xx-6x-x7xxx/11xxx2xxx7xx6x7xx9xx6xx-->
D-6x-x7xxx/11xxx2xxx7xx6x7xx9xx6xx-6x-x7xxx/11xxx2xxx7xx6x7xx9xx6xx-->
A-4x-x5xxx/9-xxx0xxx5xx4x5xx7xx4xx-4x-x5xxx/9-xxx0xxx5xx4x5xx7xx4xx-->
D-------------------------------------------------------------------->
Every advertising antic, a banner waves with a neon glow War and love become
pedantic, We wage love with a mistletoe

pre-chorus: guitar 1
e---------------------->
B---------------------->
G-55554444------------->
D-5555444444445555+++-->
A-3333222244445555+++-->
D---------44445555+++-->
Everyone's been scared to death of dying here alone

REPEAT CHORUS

REPEAT FILL 2x

bridge: guitar 1
e-------------------------------------------------------------------------->
B-------------------------------------------------------------------------->
G---------------11b----11b-----------------------11b----11b----7-7--------->
D----9xx-979-9xx---12-9---12-11-9xx-79-7-9xx-79---12-9---12-9---1179-99-79->
A-------------------------------------------------------------------------->
D-------------------------------------------------------------------------->
It's easier to love, It's easier to love It's easier to love, It's easier to
love She is easier to love, It's easier to, love

bridge: guitar 1 (r= 10th fret)
e------------------------------------------------>
B------------------------------------------------>
G-------------------------------------------9~~-->
D-rrrrrr9999944444555557777799999\44444555555~~-->
A-rrrrrr9999944444555557777799999\4444455555----->
D-rrrrrr9999944444555557777799999\4444455555----->
Everyone's been scared to death of, Everyone's been scared to death of,
Everyone's been scared to death of dying here alone, alone

chorus 3: guitar 1
e------------------------------------------------------------------------>
B--3-3--3-3----------------3-3--3-3-------------------------------------->
G--2-2--2-2----7-7---------2-2--2-2----7-7--7-7-------------------------->
D-00000000000557575------0-0000000000557575575755/99999777775555555555++->
A-00000000000555555------0-0000000000555555555555/99999777775555555555++->
D-00000000000555555------0-0000000000555555555555/99999777775555555555++->
Sheís easier than love, It's easier to lie, It's easier to fake and smile
and bribe It's easier to leave, It's easier to lie, It's harder to face
ourselves at night Feeling alone, What have we done? What is the monster
we've become?

chorus 3: guitar 1
e----------------------------------------------------------------->
B----------------------------------------------------------------->
G----------------------------------------------------------------->
D-77777777755555555557-7-7-7-7-7-5-5-5-5-5-9*99*99*99*99*99*99*9-->
A-77777777755555555557-7-7-7-7-7-5-5-5-5-5------------------------>
D-77777777755555555557-7-7-7-7-7-5-5-5-5-5------------------------>
Where is my soul? Where is my - Where is my soul? lalalalalalalalalala

outro: guitar 1
e-------------------------------------------------------------------------->
B-------------------------------------------------------------------------->
G-------------------------------------------------------------------------->
D-0-1201209*9*9*9*9*0-1201209*9*9*9*9*0-1201209*9*9*9*9*0-1201209*9*9*9*9*->
A-0-1201205---------0-1201205---------0-1201205---------0-1201205---------->
D-0-1201205---------0-1201205---------0-1201205---------0-1201205---------->
          lalalalala        lalalalala        lalalalala

outro: guitar 1
e------2-2~~-->
B------3-3~~-->
G------2-2~~-->
D-++-++0-0~~-->
A-++-++0-0~~-->
D-++-++0-0~~-->

============================================================================

06. The Blues

Tuning: Guitar 1- Standard
        Guitar 2- Standard

intro: guitar 1 (acoustic)
e-5--5--5--5--2--2--2--2--5--5--5--5--2--2--0--0--->
B-7--7--7--7--3--3--3--3--7--7--7--7--3--3--3--3--->
G--7--7--7--7--0--0--0--0--7--7--7--7--0--0--3--3-->
D-------------------------------------------------->
A-------------------------------------------------->
E-------------------------------------------------->

verse 1: guitar 1
e-5--5--5--5--2--2--2--2--5--5--5--5--2--2--2--2---------------------->
B-7--7--7--7--3--3--3--3--7--7--7--7--3--3--3--3---------------------->
G--7--7--7--7--0--0--0--0--7--7--7--7--0--0--0--0-2-2-2-2-2-2-2-2-2-2->
D--------------------------------------------------------------------->
A-------------------------------------------------0-0-0-0-0-0-0-0-0-0->
E--------------------------------------------------------------------->
is this the new year or just another night?  is this the new fear or just
another fright?  is this the new tear or just another desperation?

fill: guitar 1
e-5--5--5--5--2--2--2--2-->
B-7--7--7--7--3--3--3--3-->
G--7--7--7--7--0--0--0--0->
D------------------------->
A------------------------->
E------------------------->

verse 1: guitar 1
e-------------2--2--2--2--------------2--2--2--2--3--3--3--3--2--2--2--2--->
B-55-77-55-77-3--3--3--3--55-77-77-55-3--3--3--3--5--5--5--5--5--5--5--5--->
G-44-44-44-44--0--0--0--0-44-44-44-44--0--0--0--0--4--4--4--4--4--4--4--4-->
D-------------------------------------------------------------------------->
A-------------------------------------------------------------------------->
E-------------------------------------------------------------------------->
is this the finger or just another fist?  is this the Kingdom or just a hit
and miss?  a misdirection, most in all this desperation

fill: guitar 1
e-------------2--2--2--2--->
B-55-55-77-77-3--3--3--3--->
G-44-44-44-44--0--0--0--0-->
D-------------------------->
A-------------------------->
E-------------------------->

verse 1: guitar 1
e-5--5--5--5--0--0--0--0--2--2--2--2--2--2--2--2-->
B-7--7--7--7--3--3--3--3--3--3--3--3--3--3--3--3-->
G--7--7--7--7--2--2--2--2--4--4--4--4--0--0--0--0->
D------------------------------------------------->
A------------------------------------------------->
E------------------------------------------------->
is this what they call freedom?  is this what you call pain?  is this what
they call discontented fame?

verse 1: guitar 1
e-5--5--5--5--0--0--0--0--2--2--2--2--2--2--2--2-->
B-7--7--7--7--3--3--3--3--3--3--3--3--3--3--3--3-->
G--7--7--7--7--2--2--2--2--4--4--4--4--0--0--0--0->
D------------------------------------------------->
A------------------------------------------------->
E------------------------------------------------->
it'll be a day like this one when the world caves in when the world caves in
when the world caves in

fill: guitar 1
e-5--5--5--5--2--2--0--0--->
B-7--7--7--7--3--3--3--3--->
G--7--7--7--7--0--0--3--3-->
D-------------------------->
A-------------------------->
E-------------------------->

verse 2: guitar 1
e-2-2-2-2-2-2-0-0-2-2-2-2-2-2-0-0-2-2-2-2-3-3-0-0-2-2-2-2-2-2-5-5->
B-0-0-0-0-3-3-3-3-0-0-0-0-3-3-3-3-5-5-5-5-5-5-5-5-0-0-0-0-3-3-3-3->
G-4-4-4-4-0-0-0-0-4-4-4-4-0-0-0-0-4-4-4-4-4-4-4-4-4-4-4-4-0-0-0-0->
D---------------------------------2-2-2-2-5-5-5-5----------------->
A----------------------------------------------------------------->
E----------------------------------------------------------------->
I'm singing this one like a broken piece of glass from broken arms and
broken noses in the back is this the new year or just another desperation?

verse 2: guitar 1
e-2--2--2--2--0--0--0--0--2--2--2--2--3--3--3--3-->
B-3--3--3--3--3--3--3--3--3--3--3--3--3--3--3--3-->
G-2--2--2--2--2--2--2--2--4--4--4--4--4--4--4--4-->
D--0--0--0--0--2--2--2--2--4--4--4--4--5--5--5--5->
A------------------------------------------------->
E------------------------------------------------->
you're pushing till you're shoving you bend until you break till you stand
on the broken fields where your fathers lay

verse 2: guitar 1
e-2--2--2--2--0--0--0--0--2--2--2--2--3--3--3--3--2--2--2--2--3--3--3--3-->
B-3--3--3--3--3--3--3--3--3--3--3--3--3--3--3--3--3--3--3--3--3--3--3--3-->
G-2--2--2--2--2--2--2--2--4--4--4--4--4--4--4--4--2--2--2--2--4--4--4--4-->
D--0--0--0--0--2--2--2--2--4--4--4--4--5--5--5--5--0--0--0--0--5--5--5--5->
A------------------------------------------------------------------------->
E------------------------------------------------------------------------->
it'll be a day like this one when the world caves in when the world caves in
when the world caves in when the world caves

verse 2: guitar 1
e-2--2--2--2--3--3--3--3--2--2--2--2--3--3--3--3--0--0--2--2--5--5--5--5-->
B-3--3--3--3--3--3--3--3--3--3--3--3--3--3--3--3--0--0--2--2--5--5--5--5-->
G-2--2--2--2--4--4--4--4--2--2--2--2--4--4--4--4--2--2--4--4--7--7--7--7-->
D--0--0--0--0--5--5--5--5--0--0--0--0--5--5--5--5--2--2--4--4--7--7--7--7->
A------------------------------------------------------------------------->
E------------------------------------------------------------------------->
in when the world caves in when the world caves in

verse 3: guitar 1
/e-2--2--2--2--0--0--0--0--2--2--2--2--3--3--3--3-->\
|B-3--3--3--3--0--0--0--0--3--3--3--3--3--3--3--3-->|
|G-2--2--2--2--2--2--2--2--4--4--4--4--4--4--4--4-->|
|D--0--0--0--0--2--2--2--2--4--4--4--4--5--5--5--5->|
|A------------------------------------------------->|
|E------------------------------------------------->|
|                                                   \
|verse 3: guitar 2 (electric)                        |REAPEAT 4x
|e-2~~---------0~~---------2~~---------3~~------3-->/
|B-3~~---------0~~---------3~~---------3~~------3-->|
|G-2~~---------2~~---------4~~---------4~~------4-->|
|D-0~~---------2~~---------4~~---------7~~------7-->|
|A-------------0~~---------2~~---------5~~------5-->|
\E-------------------------------------3~~------5-->/
There's nothing here worth saving, is no one here at all?  is there any net
left that could break our fall?  it'll be a day like this one when the sky
falls down and the hungry and poor and deserted are found are you
discontented?  have you been pushing hard?  have you been through and down
this broken house of cards?  it'll be a day like this one when the world
caves in when the world caves in when the world caves in

fill: guitar 1
/e-2--2--2--2--3--3--3--3--2--2--2--2--3--3--3--3-->\
|B-3--3--3--3--3--3--3--3--3--3--3--3--3--3--3--3-->|
|G-2--2--2--2--4--4--4--4--2--2--2--2--4--4--4--4-->|
|D--0--0--0--0--5--5--5--5--0--0--0--0--5--5--5--5->|
|A------------------------------------------------->|
|E------------------------------------------------->|
|                                                   |
|fill: guitar 2 (electric)                          |
|e-2~~---------------------2~~--------------------->|
|B-3~~---------------------3~~--------------------->|
|G-2~~---------------------2~~--------------------->|
|D-0~~---------------------0~~--------------------->|
|A------------------------------------------------->|
\E------------------------------------------------->/

verse 4: guitar 1
e-2--2--2--2--2--2--2--2--5--5--5--5--2--2--2--2--3-3-3-3-2--2--2--2-->
B-3--3--3--3--3--3--3--3--7--7--7--7--3--3--3--3--5-5-5-5-3--3--3--3-->
G--4--4--4--4--0--0--0--0--7--7--7--7--4--4--4--4-4-4-4-4--0--0--0--0->
D-------------------------------------------------2-2-2-2------------->
A--------------------------------------------------------------------->
E--------------------------------------------------------------------->
is there nothing left now? nothing left to sing are there any left who
haven't kissed the enemy?  is this the New Year or just another desperation?

fill: guitar 1
e-3--3--3--3--2--2--2--2-->
B-5--5--5--5--3--3--3--3-->
G--4--4--4--4--0--0--0--0->
D------------------------->
A------------------------->
E------------------------->

outro: guitar 1
/e-2--2--2--2--0--0--0--0--2--2--2--2--3--3--3--3-->\
|B-3--3--3--3--0--0--0--0--3--3--3--3--3--3--3--3-->|
|G-2--2--2--2--2--2--2--2--4--4--4--4--4--4--4--4-->|
|D--0--0--0--0--2--2--2--2--4--4--4--4--5--5--5--5->|
|A------------------------------------------------->|
|E------------------------------------------------->|
|                                                   \
|outro: guitar 2                                     |REAPEAT 3x
|e-2~~---------0~~---------2~~---------3~~------3-->/
|B-3~~---------0~~---------3~~---------3~~------3-->|
|G-2~~---------2~~---------4~~---------4~~------4-->|
|D-0~~---------2~~---------4~~---------7~~------7-->|
|A-------------0~~---------2~~---------5~~------5-->|
\E-------------------------------------3~~------5-->/
just as I could find you, do the wicked never lose?  is there any honest
song to sing besides these blues?  and nothing is okay till the world caves
in till the world caves in till the world caves in till the world caves in
till the world caves in until the world caves in until the world caves in
until the world caves in until the world caves in until the world caves in
until the world caves in

end on:
e-2~~->
B-3~~->
G-2~~->
D-0~~->
A----->
E----->

============================================================================

07. The Setting Sun

Tuning: Guitar 1- Drop D
        Guitar 2- Drop D

intro: guitar 1
e-555-5-------------------------------------------------------------------->
B----3-3------------------------------------------------------------------->
G------/666-----7776-------------------666-----7776------------------------>
D----------9-7-5----974-5-45-4-5-4b-2-0---9-7-5----974-5-45-4-5-45-4-5-45\->
A--------------------------------------00~~-------------------------------->
D-------------------------------------------------------------------------->
|                                                                          |
|intro: guitar 2                                                           |
e-------------------------------------------------------------------------->
B-------------------------------------------------------------------------->
G---------6-666666----------4444444444444-666666---------44444444444444444->
D---------7-777777-2-222222/5555555555555-777777-2-22222/55555555555555555->
A---------7-777777-2-222222/5555555555555-777777-2-22222/55555555555555555->
D---------7-777777-2-222222/5555555555555-777777-2-22222/55555555555555555->

intro: guitar 1
/e----------------------------------------->\
|B----------------------------------------->|
|G-666-----7776---------------------------->|
|D----9-7-5----974-5-45-4-5-4b-2-0--------->|
|A--------------------------------0-------->|
|D---------------------------------0~~----->|
|                                           |
|intro: guitar 2                            |
|e----------------------------------------->|
|B----------------------------------------->|
|G-666666---------44444444444444444-------->|
|D-777777-2-22222/555555555555555550~~----->|
|A-777777-2-22222/555555555555555550~~----->|
\D-777777-2-22222/555555555555555550~~----->/
[ Tab from: http://www.guitaretab.com/s/switchfoot/66164.html ]
verse 1: guitar 1
/e----------------------------------------------------------->| \\
|B----------------------------6--------------5-2h3p2-3-2-3-2->| ||_______
|G----------------------4-4-44---7-7-6h7p6-4-2--------------->| |_________\
|D----------------------------------------------------------->|           ||
|A----------------------------------------------------------->| make this-/|
|D----------------------------------------------------------->| match to   /
|                                                           ____this      /
|verse 1: guitar 2          |______________________|_______/             /
|e-------------------------------------------------->                   /
|B-------------------------------------------------->                  /
|G---------------6xxx6xx6xx6------------6xxxxxxxxxx->                 /
|D-0xxxxxx5xxxxxx4xxx4xx4xx42xxxxxxxxxx/7xxxxxxxxxx->                /
|A-0xxxxxx5xxxxxx2xxx2xx2xx22xxxxxxxxxx/7xxxxxxxxxx->               /
\D-0xxxxxx5xxxxxx-----------2xxxxxxxxxx/7xxxxxxxxxx->______________/
Iíve got a wound that doesnít heal Burning out again Burning out again

verse 1: guitar 1
/e---------------------------------------------------------->\
|B-------------------3--2h3p2h3p2~~------------------------->|
|G----------------------------------0-0---0-0-6-6h7p6h7p6-6->|
|D--------------------------------2-----4------------------->|
|A---------------------------------------------------------->|
|D---------------------------------------------------------->|
|                                                            |
|verse 1: guitar 2                                           |
|e---------------------------------------------------------->|
|B---------------------------------------------------------->|
|G-------------------6xxx6xx6xx6--------------6xxxxxxxxxxxx->|
|D-0xxxxxxxx5xxxxxxxx4xxx4xx4xx42xxxxxxxxxxxx/7xxxxxxxxxxxx->|
|A-0xxxxxxxx5xxxxxxxx2xxx2xx2xx22xxxxxxxxxxxx/7xxxxxxxxxxxx->|
\D-0xxxxxxxx5xxxxxxxx-----------2xxxxxxxxxxxx/7xxxxxxxxxxxx->/
Iím not sure which of me is real Iím alone again Burning out again

pre-chorus: guitar 2
e----------------------->
B----------------------->
G-5~~-------4~~--------->
D-3~~-------5~~--------->
A-3~~-------5~~--------->
D-3~~-------5~~--------->
My hopeís run underneath it all The day that Iíll be home

chorus: guitar 1
/e-(5/15)-\5-\3~~------------------------8/10\8\2------------------------->\
|B--------------------------------------------------3~~------------------->|
|G------------------------------------------------------------------------>|
|D------------------------------------------------------------------------>|
|A------------------------------------------------------------------------>|
|D------------------------------------------------------------------------>|
|                                                                          |
|chorus: guitar 2                                                          |
|e------------------------------------------------------------------------>|
|B-------------------------------3333333-------------------------33333333->|
|G-------6666666-----------------2222222-6666666-----------------22222222->|
|D-------7777777-2222222-9999999-0000000-7777777-2222222-9999999-00000000->|
|A-------7777777-2222222-9999999-0000000-7777777-2222222-9999999-00000000->|
\D-------7777777-2222222-9999999-0000000-7777777-2222222-9999999-00000000->/
It wonít be long, I belong somewhere past the setting sun Finally free,
Finally strong somewhere back where I belong

chorus: guitar 1
/e------------------------------------------------------------------------>\
|B------------------------------------------------------------------------>|
|G-/666------7776---------------------666-----7776------------------------>|
|D-----9-7-5-----974-5-45-4-5-4b-2-0-----9-7-5----974-5-45-4-5-4b-2-0----->|
|A----------------------------------0--------------------------------0---->|
|D-----------------------------------0~~------------------------------0~~->|
|                                                                          |
|chorus: guitar 2                                                          |
|e------------------------------------------------------------------------>|
|B-------------------------33333333--------------------------3333333333~~->|
|G-6666666----------444444-22222222-66666666---------4444444-2222222222~~->|
|D-7777777-22222222/555555-00000000-77777777-2222222/5555555-0000000000~~->|
|A-7777777-22222222/555555-00000000-77777777-2222222/5555555-0000000000~~->|
\D-7777777-22222222/555555-00000000-77777777-2222222/5555555-0000000000~~->/
yeah-ahhhh ahhh-yeah               yeah-ahhhh ahhh-yeah


verse 2: guitar 1
/e---------5-7~~--------------------------------------------3~~-3~~->\
|B----------------------------------------------10-8~~------3~~-2~~->|
|G-------------------4---6--6h7-6--------------9------------0~~-3~~->|
|D--------------------------------------------7--------------------->|
|A------------------------------------------------------------------>|
|D------------------------------------------------------------------>/
|                                                                   /
|verse 2: guitar 2                                                 /
|e---------------------------------------------------------->     /
|B---------------------------------------------------------->    /
|G-------------------6xxx6xx6xx6--------------6xxxxxxxxxxxx->   /
|D-12xxxxxxx5xxxxxxxx4xxx4xx4xx42xxxxxxxxxxxx/7xxxxxxxxxxxx->  /
|A-12xxxxxxx5xxxxxxxx2xxx2xx2xx22xxxxxxxxxxxx/7xxxxxxxxxxxx-> /
\D-12xxxxxxx5xxxxxxxx-----------2xxxxxxxxxxxx/7xxxxxxxxxxxx->/
Theyíre selling shares of me again, Iím not buying it, Iím not buying it

verse 1: guitar 1
/e-------------5-7------------------------------------------>\
|B----------5-7---7~~-----------5-7-5~~--------------------->|
|G-----------------------------------------7-9-7-9-7-77-6--->|
|D--------------------------------------9-9-9--------------->|
|A---------------------------------------------------------->|
|D---------------------------------------------------------->|
|                                                            |
|verse 2: guitar 2                                           |
|e---------------------------------------------------------->|
|B---------------------------------------------------------->|
|G-------------------6xxx6xx6xx6--------------6xxxxxxxxxxxx->|
|D-0xxxxxxxx5xxxxxxxx4xxx4xx4xx42xxxxxxxxxxxx/7xxxxxxxxxxxx->|
|A-0xxxxxxxx5xxxxxxxx2xxx2xx2xx22xxxxxxxxxxxx/7xxxxxxxxxxxx->|
\D-0xxxxxxxx5xxxxxxxx-----------2xxxxxxxxxxxx/7xxxxxxxxxxxx->/
My wound goes deeper than the skin, Thereís no hiding it, So Iím not trying
it

  repeat pre-chorus
  repeat chorus

fill: guitar 2
e-------------------------------------------------------------------------->
B-------------------------------------------------------------------------->
G-------------------------------------------------------------------------->
D-12121212\7777777/101010101010101010/12121212\7777777/101010101010101010-->
A-12121212\7777777/101010101010101010/12121212\7777777/101010101010101010-->
D-12121212\7777777/101010101010101010/12121212\7777777/101010101010101010-->
yeah-ahhhh ahhh-yeah                    yeah-ahhhh ahhh-yeah

bridge: guitar 1                              gt. 2 come in
e----------------------------------------------------00000----------------->
B----------------------------------------------------00000-7~~------------->
G-5-5-555-6-6-6-7-6-5-5-555-6-6-6-7-6-5-5-555-4-4444-66666-7~~-5~~--------->
D-5-5-555-6-6-6-7-6-5-5-555-6-6-6-7-6-5-5-555-5-5555-77777-7~~-5~~-5xxxxxx->
A-3-3-333-4-4-4-5-4-3-3-333-4-4-4-5-4-3-3-333-5-5555-77777-5~~-3~~-5xxxxxx->
D---------------------------------------------5-5555-77777-----5~~-5xxxxxx->
let the weak say I am strong It wonít be long Let the right say I was wrong
and it wonít be let us find where we belong, beyond this setting sun, beyond
this setting sun yeah-ahhh ahh-yeah

last chorus: guitar 1
/e--\9-\7~~------------------------/9-/7~~-------------------------->\
|B------------------------------------------------------------------>|
|G------------------------------------------------------------------>|
|D------------------------------------------------------------------>|
|A------------------------------------------------------------------>|
|D------------------------------------------------------------------>|
|                                                                    |
|last chorus: guitar 2                                               |
|e------------------------------------------------------------------>|
|B-------------------------3333333-------------------------3333333-->|
|G-6666666-----------------2222222-6666666-----------------2222222-->|
|D-7777777-2222222-9999999-0000000-7777777-2222222-9999999-0000000-->|
|A-7777777-2222222-9999999-0000000-7777777-2222222-9999999-0000000-->|
\D-7777777-2222222-9999999-0000000-7777777-2222222-9999999-0000000-->/
It wonít be long, I belong somewhere past the setting sun finally free,
finally strong somewhere back where I belong

last chorus: guitar 1
/e----------------------------------------------------------2~~--->\
|B---------------------------------------------------------------->|
|G-/666------7776---------------------666-----7776---------------->|
|D-----9-7-5-----974-5-45-4-5-4b-2-0-----9-7-5-----974~~---------->|
|A----------------------------------00~~-------------------------->|
|D---------------------------------------------------------------->/
|                                                                 /
|last chorus: guitar 2                                        ___/
|e---------------------------------------------------------->/
|B---------------------------------------------------------->|
|G-6666666----------444444444444444-66666666---------4~~---->|
|D-7777777-22222222/555555555555555-77777777-2222222/5~~---->|
|A-7777777-22222222/555555555555555-77777777-2222222/5~~---->|
\D-7777777-22222222/555555555555555-77777777-2222222/5~~---->/
yeah-ahhhh ahhh-yeah               yeah-ahhhh ahhh-yeah

============================================================================

08. Politicians

Tuning: Guitar 1- Standard
        Guitar 2- Drop D

intro: guitar 1
e-0000000-0-0-0-000000-0-0-0-0000000-0-0-0-000000-0-0-0-0--->
B-0000000-0-0-0-000000-0-0-0-0000000-0-0-0-000000-0-0-0-0--->
G-4444444b4b4b4b444444b4b4b4b4444444b4b4b4b444444b4b4b4b4--->
D----------------------------------------------------------->
A----------------------------------------------------------->
E----------------------------------------------------------->
 (oh, oh ohhhhhhh)

intro: guitar 2
e----------------------------------------------------------------->
B----------------------------------------------------------------->
G---------------------------------------------------------7-7----->
D-22020-5-55/999-22020-5-55/999-22020-5-55/999h10101010-55757554-->
A-22020-5-55/999-22020-5-55/999-22020-5-55/999h10101010-55-5-554-->
D-22020-5-55/999-22020-5-55/999-22020-5-55/999h10101010-55-5-554-->

verse 1: guitar 1
/e--------------------------------------------------------------->\
|B--------------------------------------------------------------->|
|G----------------------444/55\4--------------------------------->|
|D-------444/77\5---------------------444/77\555555555-55757----->|
|A--------------------------------------------------------------->|
|E--------------------------------------------------------------->|
|                                                                 |
|verse 1: guitar 2                                                |
|e--------------------------------------------------------------->|
|B--------------------------------------------------------------->|
|G-------------------------------------------------------7-7----->|
|D-22020----------022020--------022020--------10101010-55757554-->|
|A-22020----------022020--------022020--------10101010-55-5-554-->|
\D-22020----------022020--------022020--------10101010-55-5-554-->/
Everything is broken Everything is breaking Everything is breaking down,
breaking down


verse 1: guitar 1
/e--------------------------------------------------------------->\
|B--------------------------------------------------------------->|
|G----------------------444/55\4-----------------------5-55-5---->|
|D-------444/77\5---------------------444/77\555555555--------7-->|
|A--------------------------------------------------------------->|
|E--------------------------------------------------------------->|
|                                                                 |
|verse 1: guitar 2                                                |
|e--------------------------------------------------------------->|
|B--------------------------------------------------------------->|
|G--------------------------------------------------------------->|
|D-22020----------022020--------022020--------10101010-77-7-777-->|
|A-22020----------022020--------022020--------10101010-77-7-777-->|
\D-22020----------022020--------022020--------10101010-77-7-777-->/
Everything is bleeding Everything is bleeding Everything is bleeding now,
breaking down

chorus: guitar 1
/e-2h333333333333333/88888888-3333333333333\222222------------------->\
|B-------------------88888888---------------------------------------->|
|G------------------------------------------------------------------->|
|D------------------------------------------------------------------->|
|A------------------------------------------------------------------->|
|D------------------------------------------------------------------->|
|                                                                     |
|chorus: guitar 2                                                     |
|e------------------------------------------------------------------->|
|B------------------------------------------------------------------->|
|G------------------------------------------------------------7-7---->|
|D-22222222/55555555/10101010\333333-222222-000000-10101010-55757554->|
|A-22222222/55555555/10101010\333333-222222-000000-10101010-55-5-554->|
\D-22222222/55555555/10101010\333333-222222-000000-10101010-55-5-554->/
I pledge allegiance to a country without borders, without politicians
Watching for my sky to get torn apart

chorus: guitar 1
/e-2h333333333333333/88888888-3333333333333\222222----------------->\
|B-------------------88888888-------------------------------------->|
|G----------------------------------------------------------------->|
|D----------------------------------------------------------------->|
|A----------------------------------------------------------------->|
|D----------------------------------------------------------------->|
|                                                                   |
|chorus: guitar 2                                                   |
|e----------------------------------------------------------------->|
|B----------------------------------------------------------------->|
|G----------------------------------------------------------------->|
|D-22222222/55555555/10101010\333333-222222-000000-10101010101010-->|
|A-22222222/55555555/10101010\333333-222222-000000-10101010101010-->|
\D-22222222/55555555/10101010\333333-222222-000000-10101010101010-->/
We are broken we are bitter Weíre the problem, weíre the politicians
Watching for our sky to get torn apart Come on and break me

verse 2: guitar 1
/e------------------------------------------------------------------------>\
|B------------------------------------------------------------------------>|
|G-------------------------------------------------------------4579\44b4b->|
|D------------------------------------------------------------------------>|
|A------------------------------------------------------------------------>|
|D------------------------------------------------------------------------>|
|                                                                          |
|verse 2: guitar 2                                                         |
|e------------------------------------------------------------------------>|
|B------------------------------------------------------------------------>|
|G------------------------------------------------------------------------>|
|D-22020-5-55/999-22020-5-55/999-(2+)2\---(2+)2\---(2++-+)2\---\3333-9999->|
|A-22020-5-55/999-22020-5-55/999-(2+)2\---(2+)2\---(2++-+)2\---\3333-9999->|
\D-22020-5-55/999-22020-5-55/999-(2+)2\---(2+)2\---(2++-+)2\---\3333-9999->/
Entropy and aching Where have we been aiming? Everything is fading out,
fading out

verse 2: guitar 1
/e-------------------------------------------------------------->\
|B------55\11p0-0-----555\33p0-0-----555h77/8------------------->|
|G-------------------------------------------55555555----------->|
|D----------------------------------------------------77777777-->|
|A-------------------------------------------------------------->|
|D-------------------------------------------------------------->|
|                                                                |
|verse 2: guitar 2                                               |
|e-------------------------------------------------------------->|
|B-------------------------------------------------------------->|
|G-------------------------------------------------------------->|
|D-22020---------22020----------22020--------10101010-77777777-->|
|A-22020---------22020----------22020--------10101010-77777777-->|
\D-22020---------22020----------22020--------10101010-77777777-->/
We are the faded Splintered and sedated Everything is fading out, fading out

chorus 2: guitar 1
/e-2h333333333333333/88888888-3333333333333\222222------------------->\
|B-------------------88888888---------------------------------------->|
|G------------------------------------------------------------------->|
|D------------------------------------------------------------------->|
|A------------------------------------------------------------------->|
|D------------------------------------------------------------------->|
|                                                                     |
|chorus 2: guitar 2                                                   |
|e------------------------------------------------------------------->|
|B------------------------------------------------------------------->|
|G------------------------------------------------------------7-7---->|
|D-22222222/55555555/10101010\333333-222222-000000-10101010-55757554->|
|A-22222222/55555555/10101010\333333-222222-000000-10101010-55-5-554->|
\D-22222222/55555555/10101010\333333-222222-000000-10101010-55-5-554->/
I pledge allegiance to a country without borders, without politicians
Watching for my sky to get torn apart

chorus 2: guitar 1
/e-2h333333333333333/88888888-3333333333333\222222------------------------>\
|B-------------------88888888--------------------------------------------->|
|G------------------------------------------------------------------------>|
|D------------------------------------------------------------------------>|
|A------------------------------------------------------------------------>|
|D------------------------------------------------------------------------>|
|                                                                          |
|chorus 2: guitar 2                                                        |
|e------------------------------------------------------------------------>|
|B------------------------------------------------------------------------>|
|G------------------------------------------------------------------------>|
|D-22222222/55555555/10101010\333333-222222-000000-10101010101010-3333333->|
|A-22222222/55555555/10101010\333333-222222-000000-10101010101010-3333333->|
\D-22222222/55555555/10101010\333333-222222-000000-10101010101010-3333333->/
We are broken we are bitter Weíre the problem, weíre the politicians
Watching for our sky to get torn apart Come on and break me, Come on and
break me

fill: guitar 2 (r= 10th fret)
e------------------------------------------------------------------------>
B------------------------------------------------------------------------>
G------------------------------------------------------------------------>
D-2202(4++)0-0404552202(4++)0-040455r-r7r(4++)0-040455r-r7r(4++)0-040455->
A-2202(4++)--------2202(4++)--------r-r7r(4++)--------r-r7r(4++)--------->
D-2202(4++)--------2202(4++)--------r-r7r(4++)--------r-r7r(4++)--------->
(oh, oh)  (oh, oh)

 /solo: guitar 1                                                         \
//e--------------------------------------------------------------------->\\
||B--1212121210101010/15151515\12121212-121212121010101088887h8p75-555-->||
||G-9------------------------------------------------------------------->||
||D--------------------------------------------------------------------->||
||A--------------------------------------------------------------------->||
||D--------------------------------------------------------------------->||
||                                                                       /|
||e---------------------------------------->/                             |
||B-555555533330000-5555/12121212-7777-5~~->|                             |
||G---------------------------------------->|                             |
||D---------------------------------------->|                             |
||A---------------------------------------->|                             |
|\D---------------------------------------->/                             |
|                                                                         |
| /fds (fill during solo): guitar 2                                       |
| |e-------------------------------------------------------------->\      |
| |B-------------------------------------------------------------->|      |
| |G-------------------------------------5-55/999-111111/121212\-->|      |
| |D-2202(4++)0-040455-2202(4++)0-040454-------------------------->|      |
| |A-2202(4++)0-040455-2202(4++)0-040454-3-33/777-9-9-9/-101010\-->|      |
| |D-2202(4++)0-040455-2202(4++)0-040454-------------------------->|      |
| |                                                                /      |
| |e---------------------------------->/                                  |
| |B---------------------------------->|                                  |
| |G-5-55/999-111111/121212-5~~------->|                                  |
| |D------------------------5~~------->|                                  |
| |A-3-33/777-9-9-9/-101010-7~~------->|                                  |
| \D---------------------------------->/                                  |
\                                                                         /

**last chorus**
I pledge allegiance to a country without borders without politicians,
politicians, politicians

last chorus ďfillĒ: guitar 1
e--------------------------->
B--------------------------->
G--------------------------->
D-\3333333-99999999-(4++++)->
A-\3333333-99999999-(4++++)->
D-\3333333-99999999-(4++++)->

last chorus: guitar 1
/e-2h333333333333333/88888888-3333333333333\222222----------------->\
|B-------------------88888888-------------------------------------->|
|G----------------------------------------------------------------->|
|D----------------------------------------------------------------->|
|A----------------------------------------------------------------->|
|D----------------------------------------------------------------->|
|                                                                   |
|last chorus: guitar 2                                              |
|e----------------------------------------------------------------->|
|B----------------------------------------------------------------->|
|G----------------------------------------------------------------->|
|D-22222222/55555555/10101010\333333-222222-000000-10101010101010\->|
|A-22222222/55555555/10101010\333333-222222-000000-10101010101010\->|
\D-22222222/55555555/10101010\333333-222222-000000-10101010101010\->/
I am broken I am bitter Iím the problem Iím the politician watching for my
sky to get torn apart Come on and break me

Come on and break me

outro: guitar 2
e---------------------------------------------------->
B---------------------------------------------------->
G---------------------------------------------------->
D-22020-5-55/999-22020-5-55/999-22020-5-55/999-2202\->
A-22020-5-55/999-22020-5-55/999-22020-5-55/999-2202\->
D-22020-5-55/999-22020-5-55/999-22020-5-55/999-2202\->

============================================================================

09. Golden

Tuning: Guitar 1- Standard
        Guitar 2- Standard
        Guitar 3- Drop D

verse 1: guitar 1 (acoustic)
e--1~~--1-1~~--3~~--3~~--1-11-1-1-11-3-33-3-33->
B--1~~--1-1~~--1~~--1~~--1-11-1-1-11-1-11-1-11->
G--2~~--2-2~~--2~~--2~~--2-22-2-2-22-2-33-2-22->
D--3~~--3-3~~--3~~--3~~--3-33-3-3-33-3-33-3-33->
A--3~~--3-3~~--1~~--1~~--3-33-3-3-33-1-11-1-11->
E---------------------------------------------->
sheís alone tonight with a bitter cup and sheís undone tonight sheís all
used up sheís been

verse 1: guitar 2 (electric, no distortion)
/e--------------------------5----------------------->\
|B---56~~-8--56~~-8-6~~----6-6~~--6-6-666-5~~-6666-->|
|G-05------05-------------7-------5-5-555-5~~-5555-->|
|D--------------------------------5-5-555-5~~-5555-->|
|A--------------------------------3-3-333-3~~------->|
|E-------------------------------------------------->|
|                                                    |
|verse 1: guitar 1                                   |
|e-1-11-1-11-1-3-33-3-33-3-5-55-5-55-5-3-33-3-33-3-->|
|B-1-11-1-11-1-1-11-1-11-1-6-66-6-66-6-1-11-1-11-1-->|
|G-2-22-2-22-2-2-22-2-22-2-7-77-7-77-7-3-33-3-33-3-->|
|D-3-33-3-33-3-3-33-3-33-3-7-77-7-77-7-3-33-3-33-3-->|
|A-3-33-3-33-3-1-11-1-11-1-5-55-5-55-5-1-11-1-11-1-->|
\E-------------------------------------------------->/
staring down the demons whoíve been screaming sheís just another so and so
another so and so you are

chorus: guitar 2                                     ___
/e-----------8566665-----5----------8566665-----5--->   \
|B-6666668686-------86668-6666668686-------86668---->   |
|G-------------------------------------------------->   |
|D-------------------------------------------------->   |
|A-------------------------------------------------->   |
|E-------------------------------------------------->   |
|                                                       |
|chorus: guitar 3 (distorted) (r= 10th fret)            |
|e----------------------------------------------------->|
|B-------------------------------------------------6~~->|
|G-------------------------------------------------5~~->|
|D-33333-77777-88888-rrrrr-33333-77777-88888-rrrrr-3~~->|
|A-33333-88888-88888-rrrrr-33333-88888-88888-rrrrr-3~~->|
\D-33333-77777-88888-rrrrr-33333-77777-88888-rrrrr-3~~->/
golden, you are golden child you are golden donít let go, donít let go
tonight

verse 2: guitar 1
e-1-11-1-1-11-3-33-1-11-1-11-1-1-11-3-33-1-11->
B-1-11-1-1-11-1-11-1-11-1-11-1-1-11-1-33-1-11->
G-2-22-2-2-22-2-22-2-22-2-22-2-2-22-2-22-2-22->
D-3-33-3-3-33-3-33-3-33-3-33-3-3-33-3-33-3-33->
A-3-33-3-3-33-1-11-3-33-3-33-3-3-33-1-11-3-33->
E--------------------------------------------->
thereís a fear that burns like trash inside and your shame of the curse that
burns your eyes and youíve been

verse 2: guitar 2
/e------5---------5---------5----------------------->\
|B---56--8-----56---8-6~~--6-6~~--6-6-666-5~~-6666-->|
|G-05-----05-05-----------7-------5-5-555-5~~-5555-->|
|D--------------------------------5-5-555-5~~-5555-->|
|A--------------------------------3-3-333-3~~------->|
|E-------------------------------------------------->|
|                                                    |
|verse 2: guitar 1                                   |
|e-1-11-1-11-1-3-33-3-33-3-5-55-5-55-5-3-33-3-33-3-->|
|B-1-11-1-11-1-1-11-1-11-1-6-66-6-66-6-1-11-1-11-1-->|
|G-2-22-2-22-2-2-22-2-22-2-7-77-7-77-7-3-33-3-33-3-->|
|D-3-33-3-33-3-3-33-3-33-3-7-77-7-77-7-3-33-3-33-3-->|
|A-3-33-3-33-3-1-11-1-11-1-5-55-5-55-5-1-11-1-11-1-->|
\E-------------------------------------------------->/
hiding in your bedroom hoping that this isnít how the story has to go itís
not the way it goes itís your book now youíre

REPEAT CHORUS

bridge: guitar 2                                                  ____
/e------/6-5~~-----6~~------------------------------856665-----5->    \
|B-6~~-8------5-6-8-----65-8-6---65-8-6-666-66668686------86668-->    |
|G------------------------5----5--------------------------------->    |
|D--------------------------------------------------------------->    |
|A--------------------------------------------------------------->    |
|E--------------------------------------------------------------->    |
|                                                                     |
|bridge: guitar 3                                                     |
|e------------------------------------------------------------------->|
|B------------------------------------------------------------------->|
|G------------------------------------------------------------------->|
|D-3333888833338888rrrrr333337777788888rrrrr333337777788888rrrrr-3~~->|
|A-0000888800008888rrrrr333338888888888rrrrr333338888888888rrrrr-3~~->|
\D-0000888800008888rrrrr333337777788888rrrrr333337777788888rrrrr-3~~->/
youíre a lonely soul in a land of broken hearts youíre far from home, its a
perfect place to start ahlalalalala ahlalalalala ahlalalalala ahlalalalala

verse 3: guitar 1
e-3-33-3-3-3-33-3-3-3-33-3-3-3-33-3-3-3-33-3-3-3-33-3-3-3-33-3-3-3-33-3-3->
B-1-11-1-1-1-11-1-1-1-11-1-1-1-11-1-1-1-11-1-1-1-11-1-1-1-11-1-1-1-11-1-1->
G-2-22-2-2-2-22-2-2-2-22-2-2-2-22-2-2-2-22-2-2-2-22-2-2-2-22-2-2-2-22-2-2->
D-3-33-3-3-3-33-3-3-0-00-0-0-3-33-3-3-3-33-3-3-3-33-3-3-0-00-0-0-0-00-0-0->
A----------1-11-1-1----------1-11-1-1----------1-11-1-1----------1-11-1-1->
E-1-11-1-1---------------------------------------------------------------->
and this final verse is a contradiction and the more we learn the less we
know weíve been

verse 3: guitar 2
/e------5---------5----------5-----5~~------------------->\
|B---56--865----56---8-6~~--6-6~~-6----6-6-666-5~~-6666-->|
|G-05-------5-05-----------7-----7-----5-5-555-5~~-5555-->|
|D-------------------------------------5-5-555-5~~-5555-->|
|A-------------------------------------3-3-333-3~~------->|
|E------------------------------------------------------->|
|                                                         |
|verse 3: guitar 1                                        |
|e-1-11-1-11-1-3-33-3-33-3-5-55-5-3-33-55-5-3-33-3-33-3-->|
|B-1-11-1-11-1-1-11-1-11-1-6-66-6-1-11-66-6-1-11-1-11-1-->|
|G-2-22-2-22-2-2-22-2-22-2-7-77-7-2-22-77-7-3-33-3-33-3-->|
|D-3-33-3-33-3-3-33-3-33-3-7-77-7-3-33-77-7-3-33-3-33-3-->|
|A-3-33-3-33-3-1-11-1-11-1-5-55-5-1-11-55-5-1-11-1-11-1-->|
\E------------------------------------------------------->/
talking about a feeling and we both know inside but couldnít find the words
I couldnít write this verse Iíve seldom been so sure about anything before

chorus: guitar 2                                     guitar 2
/e-----------8566665-----5-->\                     /e-5~~---->\
|B-6666668686-------86668--->|                     |B-------->|
|G-------------------------->|                     |G-------->|
|D-------------------------->|                     |D-------->|
|A-------------------------->|                     |A-------->|
|E-------------------------->|                     |E-------->|
|                            |                     |          |
|chorus: guitar 3            | repeat 6x           | guitar 3 |
|e-------------------------->|             end on: |e-------->|
|B-------------------------->|                     |B-------->|
|G-------------------------->|                     |G-------->|
|D-33333-77777-88888-rrrrr-->|                     |D-3~~---->|
|A-33333-88888-88888-rrrrr-->|                     |A-0~~---->|
\D-33333-77777-88888-rrrrr-->/                     \D-0~~---->/
golden, you are golden child you are golden donít let go, donít let go
tonight

golden, you are golden child you are golden donít let go, donít let go
tonight
----------------------------------------------------------------------
This world is a dead man down Every breath is a singing crown we wear Like
some debilitated king Don't let go tonight

golden, you are golden child you are golden donít let go, donít let go
tonight
----------------------------------------------------------------------
The Earth spins and your mind goes round The green comes on the frozen
ground And everything will be made new again Like freedom and spring

golden, you are golden child you are gold
----------------------------------------------------------------------
Hey, like freedom and spring Like freedom and spring gold

============================================================================

10. The Fatal Wound

Tuning: Guitar 1- Drop D

intro/verse 1: guitar 1 (acoustic)
e------------------------------------------------------------------------->
B----------3-3-33-3-1-1-11-1-3-3-33-3----------3-3-33-3-1-1-11-1-3-3-33-3->
G----------3-3-33-3-2-2-22-2-3-3-34-4----------3-3-33-3-2-2-22-2-3-3-34-4->
D-3-3-33-3-0-0-00-0-0-0-00-0-0-0-00-0-3-3-33-3-0-0-00-0-0-0-00-0-0-0-00-0->
A-5-5-55-5----------0-0-00-0----------5-5-55-5----------0-0-00-0---------->
D--------0-----------------0-----------------0-----------------0---------->
                                      I am the crisis I am the bitter end
Iím gonna gun this down

verse 1: guitar 1
e------------------------------------------>
B----------3-3-33-3-1-1-11-1-3-3-3-3-3-3-3->
G----------3-3-33-3-2-2-22-2-3-3-3-3-3-3-3->
D-3-3-33-3-0-0-00-0-0-0-00-0-0-0-0-0-0-0-0->
A-5-5-55-5----------0-0-00-0--------------->
D--------0-----------------0--------------->
I am divided I am the razor edge there is no easy now

chorus: guitar 1
e------------------------------------------------------------------------>
B-3-3-333-3-----------3-3-333-3-----------3-3-333-3-----------3-3-35-5-5->
G-2-2-222-2-4-4-444-4-2-2-222-2-4-4-444-4-2-2-222-2-1-1-111-1-3-3-35-5-5->
D-0-0-000-0-5-5-555-5-0-0-000-0-5-5-555-5-0-0-000-0-2-2-222-2-3-3-35-5-5->
A-0-0-000-0-5-5-555-5-0-0-000-0-5-5-555-5-0-0-000-0-2-2-222-2-1-1-13-3-3->
D-0-0-000-0-5-5-555-5-0-0-000-0-5-5-555-5-0-0-000-0-2-2-222-2------------>
Son of sorrow, staring down forever with an aching view Disenchanted letís
go down together with the fatal wound

fill: guitar 1
e----------------------------------------->
B-3-3-333-3-----------3-3-333-3----------->
G-2-2-222-2-4-4-444-4-2-2-222-2-4-4-444-4->
D-0-0-000-0-5-5-555-5-0-0-000-0-5-5-555-5->
A-0-0-000-0-5-5-555-5-0-0-000-0-5-5-555-5->
D-0-0-000-0-5-5-555-5-0-0-000-0-5-5-555-5->

verse 2: guitar 1
e-------------------------------------------------------------------------->
B-1-1-11-1-3-3-33-3-1-1-11-1-3-3-33-3-1-1-11-1-3-3-33-3-1-1-11-1-3-3-33-3-->
G-2-2-22-2-3-3-33-3-2-2-22-2-3-3-34-4-2-2-22-2-3-3-33-3-2-2-22-2-3-3-34-4-->
D-0-0-00-0-0-0-00-0-0-0-00-0-0-0-00-0-0-0-00-0-0-0-00-0-0-0-00-0-0-0-00-0-->
A-0-0-00-0----------0-0-00-0----------0-0-00-0----------0-0-00-0----------->
D--------0-----------------0-----------------0-----------------0----------->
this is the real thing the rubber bulletís not this is the final bow my
breath avoids me my chest is in my head my stomachís upside down, down

chorus 2: guitar 1
e------------------------------------------------------------------------>
B-3-3-333-3-----------3-3-333-3-----------3-3-333-3---------------------->
G-2-2-222-2-4-4-444-4-2-2-222-2-4-4-444-4-2-2-222-2-1-1-111-1-3-3-35-5-5->
D-0-0-000-0-5-5-555-5-0-0-000-0-5-5-555-5-0-0-000-0-2-2-222-2-3-3-35-5-5->
A-0-0-000-0-5-5-555-5-0-0-000-0-5-5-555-5-0-0-000-0-2-2-222-2-3-3-35-5-5->
D-0-0-000-0-5-5-555-5-0-0-000-0-5-5-555-5-0-0-000-0-2-2-222-2-1-1-13-3-3->
Son of sorrow, staring down forever with an aching view yeah, Disenchanted
letís go down together with the fatal wound

chorus 2: guitar 1
e--------------------------------------------->
B-3-3-333-3-----------3-3-333-3-----------3~~->
G-2-2-222-2-3-3-355-5-2-2-222-2-3-3-355-5-2~~->
D-0-0-000-0-3-3-355-5-0-0-000-0-3-3-355-5-0~~->
A-0-0-000-0-3-3-355-5-0-0-000-0-3-3-355-5-0~~->
D-0-0-000-0-1-1-133-3-0-0-000-0-1-1-133-3-0~~->
            with the fatal wound with the fatal wound

============================================================================

11. We Are One Tonight

Tuning: Guitar 1- Drop D
        Guitar 2- C G C G B e
        Guitar 3- C G C G B e

**guitars 2 and 3 are in [C G C G B e] tuning (tune D down to a C, A to a G,
and E down to a C.)**
intro: guitar 1
e-------------------------------------------------->
B-8-----------8-----------8-----------8------------>
G--7-555-4-2-0-7-555-4-2-0-7-555-4-2-0-7-555-4-2-0-> repeat
D---5-5---------5-5---------5-5---------5-5-------->
A-------------------------------------------------->
D-------------------------------------------------->
                         /\
intro: guitar 2 (come in  here)
  G5    D5    E5    C5   G5    D5    E5    C5
e--------------------------------------------------> NOTE** I have given you
B-------------555555-----------------555555--------> the chords that those
G-------77777744444455555------777777444444555555--> are while in the weird
C-77777799999944444477777777777999999444444777777--> [C G C G B e] tuning.
G-777777777777------55555777777777777------555555-->
C-777777-----------------777777-------------------->

verse 1: guitar 2                                    2
/e-------------------------------------------5-7---->-3333333333333333->\
|B--------------------------------------------8-8-5->------------------>|
|G-------------------------------------------------->------------------>|
|C-------------------------------------------------->------------------>|
|G-------------------------------------------------->------------------>|
|C-------------------------------------------------->------------------>/
|                                                                      /
|verse 1: guitar 1                                                    /
|e-------------------------------------------------->                /
|B-3-3-3-3-3-333-3-3-3-3-3-3-3-3-3-3-333-3-3-3-3-3-->               /
|G-2-2-2-2-2-220-0-0-0-0-0-2-2-2-2-2-220-0-0-0-0-0-->              /
|D-2-2-2-2-2-22------------2-2-2-2-2-22-------------> repeat      /
|A-------------3-3-3-3-3232------------3-3-3-3-3232->            /
\D-------------------------------------------------->___________/
all rise all fall I'll fail you all we built these cities to stand so tall
we've lost our walls

pre-chorus 1: guitar 1                           _________________
/e-0~~---5~~---0~~------------------------------>                 \
|B-3~~---5~~---1~~------------------------------>                  \
|G---------------------------------------------->                   \
|D---------------------------------------------->                    \
|A---------------------------------------------->                     \
|D---------------------------------------------->                      \
|                                                                       \
|pre-chorus 1: guitar 2 (guitar 3-acoustic-plays this also, just no palm \
|              muting)                                                    \
|  D     E5    C5        D     E5    C5                                    |
|e----------------------------------------------> NOTE I did the same thing|
|B-3xxxxx----------------3xxxxx-----------------> here.  You get the point |
|G-2xxxxx----------------2xxxxx-----------------> now.                     /
|C-2xxxxx4xxxxx0xxxxxxxxx2xxxxx4xxxxx0xxxxxxxxx->  _______________________/
|G-2xxxxx4xxxxx0xxxxxxxxx2xxxxx4xxxxx0xxxxxxxxx-> /
\C-2xxxxx4xxxxx0xxxxxxxxx2xxxxx4xxxxx0xxxxxxxxx->/
I don't want to lose it coming down with the whole world upside-down I don't
have a soul to trust in now with the whole world upside-down

chorus: guitar 1
/e----------------------333333->\
|B-888888-333333-555555-555555-> \
|G-777777-222222-444444-555555->  \_______
|D-555555-000000-222222-555555-> repeat 4x\
|A-555555-000000-222222-333333->          |
|D-555555-000000-222222-------->          |
|                                         |
|chorus: guitar 2                         |
|e-333333---------------------->          |
|B-333333-333333-555555-111111->          |
|G-000000-222222-444444-000000->          |
|C-222222-222222-444444-000000-> repeat 4x/
|G-000000-222222-444444-000000-> /
\C--------222222-444444-000000->/
we are one tonight and we're singing it out we are one tonight and we're
dreaming out loud and the world is flawed but these scars will heal we are
one tonight, tonight, tonight, tonight

verse 2: guitar 2                                    2
/e-------------------------------------------------->-3333333333333333->\
|B----------------------------------7h8p7-5-7h8p7-5->------------------>|
|G-------------------------------------------------->------------------>|
|C-------------------------------------------------->------------------>|
|G-------------------------------------------------->------------------>|
|C-------------------------------------------------->------------------>/
|                                                                      /
|verse 2: guitar 1                                                    /
|e-------------------------------------------------->                /
|B-3-3-3-3-3-3-3-3-3-3-3-3-3-3-3-3-3-3-3-3-3-3-3-3-->               /
|G-2-2-2-2-2-2-0-0-0-0-0-0-2-2-2-2-2-2-0-0-0-0-0-0-->              /
|C-2-2-2-2-2020------------2-2-2-2-2020-------------> repeat      /
|G-------------32323-3-3232------------32323-3-3232->            /
\C-------------------------------------------------->___________/
two eyes one tongue I've come undone I'm no victim I paid these dues I came
to lose

pre-chorus 2: guitar 1
/e-22-22-33-33-00-00-00-022-22-33-33-00-00-00-0->\
|B---3--3--3--3------------3--3--3--3----------->|
|G---------------0--0--0---------------0--0--0-->|
|D---------------------------------------------->|
|A---------------------------------------------->|
|D---------------------------------------------->|
|                                                |
|pre-chorus 2: guitar 2                          |
|e---------------------------------------------->|
|B-3xxxxx----------------3xxxxx----------------->|
|G-2xxxxx----------------2xxxxx----------------->|
|C-2xxxxx4xxxxx0xxxxxxxxx2xxxxx4xxxxx0xxxxxxxxx->|
|G-2xxxxx4xxxxx0xxxxxxxxx2xxxxx4xxxxx0xxxxxxxxx->|
\C-2xxxxx4xxxxx0xxxxxxxxx2xxxxx4xxxxx0xxxxxxxxx->/
I don't want to fight about it now with the whole world upside-down I don't
have a soul to trust in now with the whole world upside-down

repeat chorus riff 6x: guitar 2 and 1
we are one tonight and we're singing it out we are one tonight and we're
dreaming out loud and the world is flawed but these scars will heal we are
one tonight, tonight, tonight, tonight, tonight, tonight

bridge: guitar 1
/e-22-22-33-33-00-00-00-022-22-33-33-00-00-00-0-2~~->\
|B---3--3--3--3------------3--3--3--3-----------0~~->|
|G---------------0--0--0---------------0--0--0--0~~->|
|D-------------------------------------------------->|
|A-------------------------------------------------->|
|D-------------------------------------------------->|
|                                                    |
|bridge: guitar 2                                    |
|e-------------------------------------------------->|
|B-3~~---5~~---1~~-------3~~---5~~---1~~------------>|
|G-2~~---4~~---0~~-------2~~---4~~---0~~------------>|
|C-2~~---4~~---0~~-------2~~---4~~---0~~------------>|
|G-2~~---4~~---0~~-------2~~---4~~---0~~------------>|
\C-2~~---4~~---0~~-------2~~---4~~---0~~------------>/
I don't want to lose a common ground with the whole world upside-down I
don't want to fight about it now when the world was burning out

bridge: guitar 3
e-333333----------------------333333---------------------->
B-333333-333333-555555-111111-333333-333333-555555-111111->
G-000000-222222-444444-000000-000000-222222-444444-000000->
C-222222-222222-444444-000000-222222-222222-444444-000000->
G-000000-222222-444444-000000-000000-222222-444444-000000->
C--------222222-444444-000000--------222222-444444-000000->
Let's slow the evening down slow it down slow down please slow down, down,
down the stars are comin' out

last chorus: guitar 2 and 1 (it fades out on the CD) repeat chorus riff 8x:
we are one we are one we are one we are one tonight we are one tonight and
were singing it out we are one tonight and were dreaming out loud and the
world is flawed but these scars will heal we are one tonight, tonight,
tonight, tonight, tonight, tonight, tonight

============================================================================

12. Daisy

Tuning: Guitar 1- Standard
        Guitar 2- Standard

capo on the first fret

intro: guitar 1 (acoustic)
e---------------------------------------------------------------------->
B---------------------------------------------------------------------->
G------66---6-6---6-----66---6-6---6-----66---6-6---6-----66---6-6---6->
D-3--3-66---6-6---63--3-66---6-6---63--3-66---6-6---63--3-66---6-6---6->
A-4--4-66h8-8-8p6-64--4-66h8-8-8p6-64--4-66h8-8-8p6-64--4-66h8-8-8p6-6->
E-4--4-------------4--4-------------4--4-------------4--4-------------->

verse 1: guitar 1
e------------------------1--1--1--1-11--1--1--1--1--1--1--1------------->
B------------------------2--2--2--2-22--2--2--2--2--2--2--2--4--4--4--4->
G------------------------------------------------3--3--3--3--6--6--6--6->
D-3--3--3--3--5-55--5--5-4--4--4--4-44--4--4--4--4--4--4--4--7--7--7--7->
A-4--4--4--4--4-44--4--4-4--4--4--4-44--4--4--4--4--4--4--4--7--7--7--7->
E-4--4--4--4--4-44--4--4-------------------------2--2--2--2--5--5--5--5->
daisy give yourself away look up at the rain, the beautiful display of
power and surrender giving us today when she gives herself away

fill: guitar 1
e------------------------------------>
B------------------------------------>
G------66---6-6---6-----66---6-6---6->
D-3--3-66---6-6---63--3-66---6-6---6->
A-4--4-66h8-8-8p6-64--4-66h8-8-8p6-6->
E-4--4-------------4--4-------------->

verse 1: guitar 1
e------------------------1--1--1--1-11--1--1--1--1--1--1--1------------->
B------------------------2--2--2--2-22--2--2--2--2--2--2--2--4--4--4--4->
G------------------------------------------------3--3--3--3--6--6--6--6->
D-3--3--3--3--5-55--5--5-4--4--4--4-44--4--4--4--4--4--4--4--7--7--7--7->
A-4--4--4--4--4-44--4--4-4--4--4--4-44--4--4--4--4--4--4--4--7--7--7--7->
E-4--4--4--4--4-44--4--4-------------------------2--2--2--2--5--5--5--5->
rain, another rainy day, comes up from the ocean and gives herself away she
comes down easy on rich and debt the same when she gives herself away

fill: guitar 1
e------------------------------------>
B------------------------------------>
G------66---6-6---6-----66---6-6---6->
D-3--3-66---6-6---63--3-66---6-6---6->
A-4--4-66h8-8-8p6-64--4-66h8-8-8p6-6->
E-4--4-------------4--4-------------->
                               let it
chorus: guitar 1
e-7---7---7---6---6---6---5---5---5---4---4---4---3---3---3---2---2---2--->
B-------------------------7-7-7-7-7-7-5-5-5-5-5-5-4-4-4-4-4-4-4-4-4-4-4-4->
G-6-6-6-6-6-6-6-6-6-6-6-6----------------------------0---0---------------->
D----9---9-------8---8-------7---7-------6---6-------------------4---4---->
A------------------------------------------------------------------------->
E------------------------------------------------------------------------->
go, Daisy let it go open up your fist, this fallen world doesnít hold your
interest, it doesnít hold your soul daisy let it go

fill: guitar 1
e-1---------------------------------->
B-2---------------------------------->
G-1----66---6-6---6-----66---6-6---6->
D-3--3-66---6-6---63--3-66---6-6---6->
A-4--4-66h8-8-8p6-64--4-66h8-8-8p6-6->
E-4--4-------------4--4-------------->

verse 2: guitar 1
e------------------------1--1--1--1-11--1--1--1--1--1--1--1------------->
B------------------------2--2--2--2-22--2--2--2--2--2--2--2--4--4--4--4->
G------------------------------------------------3--3--3--3--6--6--6--6->
D-3--3--3--3--5-55--5--5-4--4--4--4-44--4--4--4--4--4--4--4--7--7--7--7->
A-4--4--4--4--4-44--4--4-4--4--4--4-44--4--4--4--4--4--4--4--7--7--7--7->
E-4--4--4--4--4-44--4--4-------------------------2--2--2--2--5--5--5--5->
pain, give yourself a name, call yourself contrition, avarice or blame
giving isnít easy, neither is the rain and she gives herself away

fill: guitar 1
e------------------------------------>
B------------------------------------>
G------66---6-6---6-----66---6-6---6->
D-3--3-66---6-6---63--3-66---6-6---6->
A-4--4-66h8-8-8p6-64--4-66h8-8-8p6-6->
E-4--4-------------4--4-------------->

verse 2: guitar 1
e------------------------1--1--1--1-11--1--1--1--1--1--1--1------------->
B------------------------2--2--2--2-22--2--2--2--2--2--2--2--4--4--4--4->
G------------------------------------------------3--3--3--3--6--6--6--6->
D-3--3--3--3--5-55--5--5-4--4--4--4-44--4--4--4--4--4--4--4--7--7--7--7->
A-4--4--4--4--4-44--4--4-4--4--4--4-44--4--4--4--4--4--4--4--7--7--7--7->
E-4--4--4--4--4-44--4--4-------------------------2--2--2--2--5--5--5--5->
daisy why another day, why another sunrise, who will take the blame for all
redemptive motion and every rainy day He gives himself away

fill: guitar 1
e------------------------------------>
B------------------------------------>
G------66---6-6---6-----66---6-6---6->
D-3--3-66---6-6---63--3-66---6-6---6->
A-4--4-66h8-8-8p6-64--4-66h8-8-8p6-6->
E-4--4-------------4--4-------------->
                               let it
chorus: guitar 1
e-7---7---7---6---6---6---5---5---5---4---4---4---3---3---3---2---2---2--->
B-------------------------7-7-7-7-7-7-5-5-5-5-5-5-4-4-4-4-4-4-4-4-4-4-4-4->
G-6-6-6-6-6-6-6-6-6-6-6-6----------------------------0---0---------------->
D----9---9-------8---8-------7---7-------6---6-------------------4---4---->
A------------------------------------------------------------------------->
E------------------------------------------------------------------------->
go, Daisy let it go open up your fist, this fallen world doesnít hold your
interest, it doesnít hold your soul daisy let it go

fill: guitar 1
e-1---------------------------------->
B-2---------------------------------->
G-1----66---6-6---6-----66---6-6---6->
D-3--3-66---6-6---63--3-66---6-6---6->
A-4--4-66h8-8-8p6-64--4-66h8-8-8p6-6->
E-4--4-------------4--4-------------->
                               let it
bridge: guitar 1
e-7---76---76---6---65---55---54--4--4-4--42-2--21-1222-21~~->
B-7-7-77-7-77-7-7-7-76-6-66-6-6445445445445444-4422-22-222~~->
G-88-8-88-8-88-888-8888-8-88-88------------33-3-3111-1-111~~->
D--------------------------------------------------------3~~->
A--------------------------------------------------------4~~->
E--------------------------------------------------------4~~->
go......

fill 2: guitar 1
e-1-------------------------------------------------------------------->
B-2-------------------------------------------------------------------->
G-1----66---6-6---6-----66---6-6---6-----66---6-6---6-----66---6-6---6->
D-3--3-66---6-6---63--3-66---6-6---63--3-66---6-6---63--3-66---6-6---6->
A-4--4-66h8-8-8p6-64--4-66h8-8-8p6-64--4-66h8-8-8p6-64--4-66h8-8-8p6-6->
E-4--4-------------4--4-------------4--4-------------4--4-------------->
                                                                let it
bridge: guitar 2 (electric)
e---------------------------------------------------------------------->
B---------22222222---------22222222---------22222222---------22222222-->
G-------5433333333-------5433333333-------5433333333-------5433333333-->
D-3333333344444444-3333333344444444-3333333344444444-3333333344444444-->
A-4444444444444444-4444444444444444-4444444444444444-4444444444444444-->
E-44444444---------44444444---------44444444---------44444444---------->
  go        let it go        let it go, go    let it go    let it go
e--------------------------------------->
B---------22222222---------22222222----->
G-------5433333333-------5433333333----->
D-3333333344444444-3333333344444444-3~~->
A-4444444444444444-4444444444444444-4~~->
E-44444444---------44444444---------4~~->
  let it go, go   let it go  let it go...

============================================================================
Related for Nothing Is Sound tab