Guitaretab - guitar tabs
Song name
# A B C D E F G H I J K L M N O P Q R S T U V W X Y Z

Switchfoot - I Turn Everything Over tab

Intro: guitar 1
e--------------------------------------->
B--------------------------------------->
G-99-11-13------9-11-99-11-13----------->
D-99-11-13--777-9-11-99-11-13--777799--->
A-77-9--11--777-7-9--xx-9--11--777799--->
E-----------555------99--------555577--->

Verse 1: guitar 2 (drop D tuning)
e------------4--------------------4--------->
B--9----9----5----9--9--9----9----5----9--9->
G--9----9---------9--9--9----9---------9--9-> repeat
D------------------------------------------->
A-7----6----4----------7----6----4---------->
D----------------7--9-----------------7--9-->
Monday found me on my knees again breathing you in to blur the lines that
mark where I begin and where you end no use in trying to pretend come take
me again cause rumor has it Iím not who Iíve been come define me

Pre-chorus: guitar 1
/e------0~---------0~-->\
|B------0~---------0~-->|
|G------8~----55---6~-->|
|D-44---9~----66---7~-->|
|A-44---9~----66---7~-->|
|E-22---7~----44---7~-->|
|                       |
|Pre chorus: guitar 2   |
|e-55---0~---------0~-->|
|B-77---0~---------0~-->|
|G-66---8~----55---6~-->|
|D-44---9~----66---7~-->|
|A-44---9~----66---7~-->|
\E-44---9~----66---7~-->/
What can we do if the rumors are true
[ Tab from: http://www.guitaretab.com/s/switchfoot/70855.html ]
Chorus: guitar 1
e-0000000000000000000000000000000000000000000000000000000------------------>
B-0000000000000000000000000000000000000000000000000000000------------------>
G-9999999222222226666666622222222666666662222222299999999222244------------>
D-9999999222222226666666622222222666666662222222299999999222244------------>
A-7777777000000004444444400000000444444440000000077777777000022------------>
E-0000000----------------------------------------00000000------------------>
I turn everything over, turn myself in I turn everything over, turn myself
in thereís nothing left of me to defend I turn everything over, turn myself
in, yeah

---REPEAT INTRO

Verse 2: guitar 2
e------------4--------------------4--------->
B--9----9----5----9--9--9----9----5----9--9->
G--9----9---------9--9--9----9---------9--9-> repeat
D------------------------------------------->
A-7----6----4----------7----6----4---------->
D----------------7--9-----------------7--9-->
The evidence convicts the hollow men after looking inside to my dismay I
find Iím just one of them cause yeah, yeah, cause Iím an already but not
yet resurrected fallen man come break this limbo and I know you know just
who Iíve been come define me

---REPEAT PRE-CHORUS

---REPEAT CHORUS

bridge: guitar 1
e-0000000000000000000000000000000000000000000000-----0~--->
B-0000000000000000000000000000000000000000000000-----0~--->
G-9999999977777777666666666444444422222224444444-----6~--->
D-9999999977777777666666666444444422222224444444-----7~--->
A-77777777555555554444444442222222000000022222226----7~--->
E-00000000--------------------------------------4----5~--->
Rumor has it you love me, rumor has it the world spins upside down rumor
has it my only hope is you and the rumors are true I turn everything over
yeah

Fill: guitar 1
e-------------------------------------------------------------->
B-------------------------------------------------------------->
G--4/6-6\4-44-----4/6-6\4-44----------4/6-6\4-44-----4/9~------>
D--4/6-6\4-44-----4/6-6\4-44----------4/6-6\4-44-----4/9~------>
A-22/4-4\2-22----22/4-4\2-22---------22/4-4\2-22----22/7~------>
E-------------------------------------------------------------->
  *              *                   *              *
---REPEAT PRE-CHORUS

---REPEAT CHORUS

---REPEAT CHORUS

---REPEAT CHORUS (no words)
Related for I Turn Everything Over tab