Song name
# A B C D E F G H I J K L M N O P Q R S T U V W X Y Z

Switchfoot - Dirty Second Hands tab

okay this is only my fourth tab but it sounds okay to me, so heres how i play it...

X=choke note
^= bend


Intro (accoustic)  x3 w/o the open D and the D5 chord on the third time
e|--------------------|
B|----------------3--3|
G|----------------2--2|
D|-0-3--0---0-----0--0|
A|--------3-------0--0|
D|-------------0--0--0|

Verse (electric clean)
e|------------------------------------------------------------|
B|------------------------------------------------------------|
G|------7--7---9-----10-10---12-----11-11----9-----10-10---9--|
D|-0--0-X--X-0-X-0--0-X--X-0-X--0--0-X--X--0-X-0--0-X--X-0-X--|
A|-0--0-5--5-0-7-0--0-8--8-0-10-0--0-9--9--0-7-0--0-8--8-0-7--|
D|-0--0------0---0--0------0----0--0-------0---0--0------0----|

e|----------------------------------------------------------------|
B|-----------------------------------------------3-3--------------|
G|------7--7---9-----10-10---12------------------2-2-------------7|
D|-0--0-X--X-0-X-0--0-X--X-0-X--0--0-3--0---0----0-0-3--0---0-0--X|
A|-0--0-5--5-0-7-0--0-8--8-0-10-0---------3------0-0------3---0--5|
D|-0--0------0---0--0------0----0-------------0--0-0----------0---|

e|------------------------------------------------------------|
B|------------------------------------------------------------|
G|------7--7---9-----10-10---12-----11-11----9-----10-10---9--|
D|-0--0-X--X-0-X-0--0-X--X-0-X--0--0-X--X--0-X-0--0-X--X-0-X--|
A|-0--0-5--5-0-7-0--0-8--8-0-10-0--0-9--9--0-7-0--0-8--8-0-7--|
D|-0--0------0---0--0------0----0--0-------0---0--0------0----|

e|-------------------------------------------------------------------------|
B|-----------------------------------------------3-3-------------3---------|
G|------7--7---9-----10-10---12------------------2-2-------------2---------|
D|-0--0-X--X-0-X-0--0-X--X-0-X--0--0-3--0---0----0-0-3--0---0-0--0---3-0-0-|
A|-0--0-5--5-0-7-0--0-8--8-0-10-0---------3------0-0------3---0--0------3--|
D|-0--0------0---0--0------0----0-------------0--0-0----------0--0--------0|

chorus (electric distorted)
e|----------------------|
B|----------------------|
G|-10---10--------------|
D|-10-9-10-9-10-11-12-0-|
A|-8--9-8--9-10-11-12-0-|
D|----9----9-10-11-12-0-|

chorus continued (accoustic) x2
e|---------------|
B|-3-2-----------|
G|-2-2-----------|
D|-0-0--4--0-0-0-|
A|-0-0------4--0-|
D|-0-0---------0-|

electric (distorted)
e|----------------------|
B|----------------------|
G|-10---10--------------|
D|-10-9-10-9-10-11-12-0-|
A|-8--9-8--9-10-11-12-0-|
D|----9----9-10-11-12-0-|

accoustic x2
e|---------------|
B|-3-2-----------|
G|-2-2-----------|
D|-0-0--4--0-0-0-|
A|-0-0------4--0-|
D|-0-0---------0-|

electric (distorted)
e|----|
B|-6^-|
G|-5^-|
D|----|
A|----|
D|----|

verse 2 (electric distorted)
e|------------------------------------------------------------|
B|------------------------------------------------------------|
G|------7--7---9-----10-10---12-----11-11----9-----10-10---9--|
D|-0--0-X--X-0-X-0--0-X--X-0-X--0--0-X--X--0-X-0--0-X--X-0-X--|
A|-0--0-5--5-0-7-0--0-8--8-0-10-0--0-9--9--0-7-0--0-8--8-0-7--|
D|-0--0------0---0--0------0----0--0-------0---0--0------0----|

e|----------------------------------------------------------------|
B|-----------------------------------------------3-3--------------|
G|------7--7---9-----10-10---12------------------2-2-------------7|
D|-0--0-X--X-0-X-0--0-X--X-0-X--0--0-3--0---0----0-0-3--0---0-0--X|
A|-0--0-5--5-0-7-0--0-8--8-0-10-0---------3------0-0------3---0--5|
D|-0--0------0---0--0------0----0-------------0--0-0----------0---|

e|------------------------------------------------------------|
B|------------------------------------------------------------|
G|------7--7---9-----10-10---12-----11-11----9-----10-10---9--|
D|-0--0-X--X-0-X-0--0-X--X-0-X--0--0-X--X--0-X-0--0-X--X-0-X--|
A|-0--0-5--5-0-7-0--0-8--8-0-10-0--0-9--9--0-7-0--0-8--8-0-7--|
D|-0--0------0---0--0------0----0--0-------0---0--0------0----|

e|-------------------------------------------------------------------------|
B|-----------------------------------------------3-3-------------3---------|
G|------7--7---9-----10-10---12------------------2-2-------------2---------|
D|-0--0-X--X-0-X-0--0-X--X-0-X--0--0-3--0---0----0-0-3--0---0-0--0---3-0-0-|
A|-0--0-5--5-0-7-0--0-8--8-0-10-0---------3------0-0------3---0--0------3--|
D|-0--0------0---0--0------0----0-------------0--0-0----------0--0--------0|

chorus (electric distorted)
e|----------------------|
B|----------------------|
G|-10---10--------------|
D|-10-9-10-9-10-11-12-0-|
A|-8--9-8--9-10-11-12-0-|
D|----9----9-10-11-12-0-|

chorus continued (accoustic) x2
e|---------------|
B|-3-2-----------|
G|-2-2-----------|
D|-0-0--4--0-0-0-|
A|-0-0------4--0-|
D|-0-0---------0-|

electric (distorted)
e|----------------------|
B|----------------------|
G|-10---10--------------|
D|-10-9-10-9-10-11-12-0-|
A|-8--9-8--9-10-11-12-0-|
D|----9----9-10-11-12-0-|

accoustic x2
e|---------------|
B|-3-2-----------|
G|-2-2-----------|
D|-0-0--4--0-0-0-|
A|-0-0------4--0-|
D|-0-0---------0-|

bridge (accoustic) x20
e|-------------------|
B|----3--3-----------|
G|----2--2-----------|
D|-0--0--0--0-3--0-0-|
A|-0--0--0--------3--|
D|-0--0--0-----------|

electric (distorted)
e|----------------------|
B|----------------------|
G|-10---10--------------|
D|-10-9-10-9-10-11-12-0-|
A|-8--9-8--9-10-11-12-0-|
D|----9----9-10-11-12-0-|

accoustic
e|---------------------|
B|-3--3--3--3-3-3-3-3--|
G|-2--2--2--2-2-2-2-2--|
D|-0--0--0--0-0-0-0-0--|
A|-0--0--0--0-0-0-0-0--|

electric (distorted)
e|----------------------|
B|----------------------|
G|-10---10--------------|
D|-10-9-10-9-10-11-12-0-|
A|-8--9-8--9-10-11-12-0-|
D|----9----9-10-11-12-0-|

accoustic
e|---------------------|
B|-3--3--3--3-3-3-3-3--|
G|-2--2--2--2-2-2-2-2--|
D|-0--0--0--0-0-0-0-0--|
A|-0--0--0--0-0-0-0-0--|

electric (distorted)
e|----------------------|
B|----------------------|
G|-10---10--------------|
D|-10-9-10-9-10-11-12-0-|
A|-8--9-8--9-10-11-12-0-|
D|----9----9-10-11-12-0-|

outro (accoustic)   x2
e|-------------------|
B|----3--3-----------|
G|----2--2-----------|
D|-0--0--0--0-3--0-0-|
A|-0--0--0--------3--|
D|-0--0--0-----------|

e|--------------------------|
B|----3--3------------------|
G|----2--2------------------|
D|-0--0--0--0-3--0-0-0------|
A|-0--0--0--------3--0------|
D|-0--0--0-----------0------|

END


like i said in the beginning, this is only my fourth tab, so let me know of any 
you may have...please.
Tap to rate this tab
 
# A B C D E F G H I J K L M N O P Q R S T U V W X Y Z