Song name
# A B C D E F G H I J K L M N O P Q R S T U V W X Y Z

Switchfoot - Daisy Chorus tab

Help us improve GuitareTab! Take a short survey!
*Chorus
e|---------8---------8------8-------7--------7--------7--------6-----------|
B|---------10--10------10-----------8---8-------8--------------8---8-------|
G|---------7------7-------7---7-----7-----7--------7-----7-----7------7----|
D|-------------------------------------------------------------------------|
A|-------------------------------------------------------------------------|
D|-------------------------------------------------------------------------|
    Let it go,        Daisy let it go          Open up your fists

e|---6------6------5---------5-------5-------------4-----------------------|
B|-----8-----------6---6-------6-------------------5-----5-----------------|
G|-------7----7----7------7------7-------7---------4---------4-------------|
D|-------------------------------------------------------------------------|
A|-------------------------------------------------------------------------|
D|-------------------------------------------------------------------------|
    This fallen world         Doesn't hold your interest

e|-4----------4----------3---------3----------3--2--------------------------|
B|----5---------------------5----------5------------------------------------|
G|------4--------4-------------2----------2---------------------------------|
D|--------------------------------------------------------------------------|
A|--------------------------------------------------------------------------|
D|--------------------------------------------------------------------------|
    Doesn't hold your soul           Daisy let it go
Related for Daisy Chorus tab