Song name
# A B C D E F G H I J K L M N O P Q R S T U V W X Y Z

Switchfoot - Sound In My Mouth tab

This song by Switchfoot is on an EP they sold at a concert I went to. on the cover it 
"(oh!) Switchfoot" on it.

Intro: guitar 1 (bend and then unbend)
e-------------------------------------------------------------------------->
B-------------------------------------------------------------------------->
G-------------------------------------------------------------------------->
D-0~----------------------------------------------------------------------->
A-5~---b---b---b--b--b-b-b-bbbbb-b-b--b--b---b----b-----b------------------>
D-------------------------------------------------------------------------->

Intro: this is mostly a part for bass, not much to the guitar part
e-------------------------------------------------------------------------->
B-------------------------------------------------------------------------->
G-------------------------------------------------------------------------->
D-000000000000000000000000000000000000000000000000000000000000000000000000->
A-------------------------------------------------------------------------->
D-------------------------------------------------------------------------->

Verse 1: only drums
i am a crook who robs me i am my own adversary i am my enemy, i am my enemy
and my mouth is an army

e-------------------------------------------------------------------------->
B-------------------------------------------------------------------------->
G-------------------------------------------------------------------------->
D-000000000000000000000000000000000000000000000000000000000000000000000000->
A-------------------------------------------------------------------------->
D-------------------------------------------------------------------------->

Verse 2: only drums
when the night falls on me i become anything but free i get so sick of this
it gets ridiculous

e--------------->
B--------------->
G-2222222222222->
D-2222222222222->
A-0000000000000->
D--------------->
my mouth is an army

chorus: (r=10th fret)     (stretch!!)
e-------------------------------------------------------------------------->
B-------------------------------------------------------------------------->
G-------------------------------------------------------------------------->
D-000000000000000000000000000000000000000000000000000000000000000000000000->
A-555555557777777799999999rrrrrrrr5555555577777777rrrrrrrrrrrr555555555555->
D---------777777775555555555555555--------77777777rrrrrrrrrrrr555555555555->
the sound in my mouth it gets so loud it gets so loud little words can't
slip out words like sorry and i'm so sorry yeah-eah

e-------------------------------------------------------------------------->
B-------------------------------------------------------------------------->
G-------------------------------------------------------------------------->
D-000000000000000000000000000000000000000000000000000000000000000000000000->
A-------------------------------------------------------------------------->
D-------------------------------------------------------------------------->

Verse 3: (listen on cd for timing)
e-------------------------------------------------------------------------->
B-------------------------------------------------------------------------->
G-------------------------------------------------------------------------->
D-----0---0------------0---0------------0---0-------------0---0------------>
A-----0---0------------0---0------------0---0-------------0---0------------>
D-----0---0------------0---0------------0---0-------------0---0------------>
      *   *            *   *            *   *             *   *
i am the tyrant of discourse i am the beater of the dead horse i am the
irritant i am the irritant and my mouth is a brute force

Verse 4: (listen on cd for timing)
e-------------------------------------------------------------------------->
B-------------------------------------------------------------------------->
G-------------------------------------------------------------------------->
D-----0---0------------7---7------------5---5-------------5---5------------>
A-----0---0------------7---7------------5---5-------------3---3------------>
D-----0---0------------7---7------------5---5-------------5---5------------>
      *   *            *   *            *   *             *   *
here we are in another night gearing up for a social accident

Verse 4:
e-------------------------------------------------------------------------->
B-------------------------------------------------------------------------->
G-------------------------------------------------------------------------->
D-----0---0------------7---7------------7---7-------------7---7------------>
A-----0---0------------7---7------------7---7-------------7---7------------>
D-----0---0------------7---7------------7---7-------------7---7------------>
      *   *            *   *            *   *             *   *
with a pick pot, i pick sides, i pick fights my mouth is an army

chorus: (r=10th fret)
e-------------------------------------------------------------->
B-------------------------------------------------------------->
G-------------------------------------------------------------->
D-000000000000000000000000000000000000000000000000000000000000->
A-555555557777777799999999rrrrrrrr5555555577777777rrrrrrrrrrrr->
D---------777777775555555555555555--------77777777rrrrrrrrrrrr->
the sound in my mouth it gets so loud it gets so loud little words can't
slip out words like sorry

chorus: (r=10th fret)
e-------------------------------------------------------------------------->
B-------------------------------------------------------------------------->
G-------------------------------------------------------------------------->
D-000000000000000000000000000000000000000000000000000000000000000000000000->
A-555555557777777799999999rrrrrrrr5555555577777777rrrrrrrrrrrr777777777777->
D---------777777775555555555555555--------77777777rrrrrrrrrrrr777777777777->
the sound in my mouth it gets so loud it gets so loud little words can't
slip out words like sorry and i'm so sorry yeah-eah

bridge:
e-------------------------------------------------------------------------->
B-------------------------------------------------------------------------->
G-------------------------------------------------------------------------->
D-000000000000000000000000000000000000000000000000000000007777777755555555->
A-000000007777777755555555000000007777777755555555000000007777777755555555->
D-000000007777777755555555000000007777777755555555000000007777777755555555->
where would you find yourself without love? give her off to someone else is
that enough? if love is to find yourself are you finding love?

(r= 10th fret)
e----------------------r----\----\--\--\--\-\-\\\-------------------------->
B----------------------r----\----\--\--\--\-\-\\\-------------------------->
G----------------------r----\----\--\--\--\-\-\\\-------------------------->
D----------------------9----\----\--\--\--\-\-\\\-------------------------->
A-r~----5~----------------------------------------------------------------->
D-r~----5~----------------------------------------------------------------->
or are you picking sides? the sound in my mouth gets so loud gets so loud
it gets so loud so loud so loud it gets so loud

guitar: solo (r= 10th fret)
e---------------------------------rrrrrrrrrrrrrrrr-->
B---------7777777788888888rrrrrrrr------------------>
G-99999999------------------------------------------>
D--------------------------------------------------->
A--------------------------------------------------->
D--------------------------------------------------->

---repeat chorus 1

end on: (fade out)
e---------------------------------------------------------->
B---------------------------------------------------------->
G-7~---5h7--5h7--5h7--5h7--5h7--5h7--5h7--5h7--5h7--5h7---->
D-7~------------------------------------------------------->
A-5~------------------------------------------------------->
D-0~------------------------------------------------------->
Tap to rate this tab
 
# A B C D E F G H I J K L M N O P Q R S T U V W X Y Z