Guitaretab - guitar tabs
Song name
# A B C D E F G H I J K L M N O P Q R S T U V W X Y Z

Switchfoot - Oh Gravity Acoustic tab

this is the acoustic version of "oh gravity" and the last song on an EP I
got at a concert. the cover has "(oh!) Switchfoot" on it.

Intro: acoustic
e------------7-----------7-----------------------7----------->
B------------5-----------5-----------3-----------5----------->
G----------66--6-66446-66--6-66446-44--4-44224-66--6-664----->
D-++++++0-7-----0-----7-----0-----5-----0-----7-----0----77-->
A-++++++0-7-----0-----7-----0-----5-----0-----7-----0-----7-->
D-++++++0-7-----0-----7-----0-----5-----0-----7-----0-----7-->

Verse 1:
e------------------------------------------------------------------------>
B------------------------------------------------------------------------>
G------------------------------------------------------------------------>
D-++++++++++++++++++++++++++++++++++++++++++++++++++++++++++++++++++++++->
A-++++++++++++++++++++++++++++++++++++++++++++++++++++++++++++++++++++++->
D-++++++++++++++++++++++++++++++++++++++++++++++++++++++++++++++++++++++->
Thereís a fracture in the color bar in the backseat of a parked car by the
liquor store where the street light keeps you company Ďtill the next night

e------------------------------------------------------------------------>
B------------------------------------------------------------------------>
G---------------------------------------------------------------6666----->
D-++++0-7-++++7-0-++++0-7-++++7-0-++++0-5-++++5-0-++++0-7-++++++66663333->
A-++++0-7-++++7-0-++++0-7-++++7-0-++++0-5-++++5-0-++++0-7-++++++44443333->
D-++++0-7-++++7-0-++++0-7-++++7-0-++++0-5-++++5-0-++++0-7-++++++----3333->
In the same town thereís the same scar in the same glow by the liquor store
by the freeway where the headlight keeps you company Ďtill the next night

Chorus: (r= 10th fret)
e------------------------------------------------------------------>
B-rrrrrrrrrrrrrrrrrrrrrrrrrrrrrrrrrrrrrrrrrrrrrrrrrrrrrrrrrrrrrrrr->
G-9999999999999999999999999999999999999999999999999999999999999999->
D-7777777700000000777777770000000077777777000000007777777700000000->
A-7777777700000000777777770000000077777777000000007777777700000000->
D-7777777700000000777777770000000077777777000000007777777700000000->
Oh gravity why canít we seem to keep it together? sons of my enemies why
canít we seem to keep it together?

Fill:
e----7-----------7----------->
B----5-----------5----------->
G--66--6-66446-66--6-442242~->
D-7-----0-----7-----0000000~->
A-7-----0-----7-----0000000~->
D-7-----0-----7-----0000000~->
[ Tab from: http://www.guitaretab.com/s/switchfoot/81160.html ]
Verse 2:
e------------------------------------------------------------------>
B------------------------------------------------------------------>
G---------------------------------------------------------6666----->
D-7777777700000000777777770000000055555555000000007777777766663333->
A-7777777700000000777777770000000055555555000000007777777744443333->
D-77777777000000007777777700000000555555550000000077777777----3333->
  ******************************************************
In the back room of the pentagon thereís a thin man with the line drawn
with a red jaw and a red bite watch the headline on the next night

---REPEAT CHORUS

chorus 2: (r=10th fret)
e-5555555555555555------------------------------------------------->
B-7777777777777777rrrrrrrrrrrrrrrrrrrrrrrrrrrrrrrr----------------->
G-666666666666666699999999999999999999999999999999----------------->
D-4444444400000000777777770000000077777777000000004444444400000000->
A-4444444400000000777777770000000077777777000000004444444400000000->
D-4444444400000000777777770000000077777777000000004444444400000000->
Why this tragedy? Why canít we seem to keep it together oh gravity why
canít we seem to keep it together, now

Bridge: (r= 10th fret)
e------------------------------------------------------------------>
B------------------------------------------------------------------>
G------------------------------------------------------------------>
D-77++----00++++++77++++++0000000077------00------77------00000000->
A-77++----00++++++77++++++0000000077------00------77------00000000->
D-77++----00++++++77++++++0000000077------00------77------00000000->
In the fallout, the fallout we found out the hype wonít get you through
connected, connected, I meant it; the hype wonít get you through, through!

Fill 2: (r= 10th fret)
e---------------------------------->
B-rrrrrrrrrrrrrrrrrrrrrrrrrrrrrrrr->
G-99999999999999999999999999999999->
D-77777777000000007777777700000000->
A-77777777000000007777777700000000->
D-77777777000000007777777700000000->

Chorus 3:
e-77777777777777777777777777777777777777777777777777777777++++++++++->
B-rrrrrrrrrrrrrrrrrrrrrrrrrrrrrrrrrrrrrrrrrrrrrrrrrrrrrrrr++++++++++->
G-99999999777777779999999977777777999999997777777799999999++++++++++->
D-77777777--------77777777--------77777777--------77777777----------->
A-------------------------------------------------------------------->
D-------------------------------------------------------------------->
Oh gravity why canít we seem to keep it together? Sons of my enemies why
canít we seem to pull it together?

---REPEAT CHORUS 2

(r= 10th fret)
e------------------------------------------------------------>
B-rrrrrrrrrrrrrrrrrrrrrrrrrrrrrrrrrrrrrrrrrrrrrrrrrrrrrrrrr-->
G-999999999999999999999999999999999999999999999999999999999-->
D-777777770000000077777777000000007777777700000000777777770-->
A-777777770000000077777777000000007777777700000000777777770-->
D-777777770000000077777777000000007777777700000000777777770-->
Lalalalalala lala la la la lalalalala la lalalalala lalala la letís pull it
together
Related for Oh Gravity Acoustic tab