Song name
# A B C D E F G H I J K L M N O P Q R S T U V W X Y Z

Switchfoot - Oh Gracity tab

this is my first tab but i think this is exactly how the song sounds. enjoy.

E-------------------------------------------------------------------------|
B-------------------------------------------------------------------------|
G-------------------------------------------------------------------------|
D--------------6-----------------------------------6----------------------|
A--8--8--8--8-----8--8--8--8--8--6--8--8--8--8--8-----8--8--8--8--8--6--8-|
D--8--8--------------8--8--------------8--8--------------8--8-------------|


E-------------------------------------------------------------------------|
B-------------------------------------------------------------------------|
G-------------------------------------------------------------------------|
D--------------4-----------------------------------6----------------------|
A--6--6--6--6-----6--6--6--6--6--4--6--8--8--8--8-----8--8--8--8--8--6--4-|
D--6--6--------------6--6--------------8--8--------------8--8-------------|
Tap to rate this tab
 
# A B C D E F G H I J K L M N O P Q R S T U V W X Y Z