Song name
# A B C D E F G H I J K L M N O P Q R S T U V W X Y Z

Switchfoot - Faust Midas And Myself tab

Switchfoot
Faust, Midas, & Myself
Oh! Gravity -- 2006

This is a song off of Switchfoot's latest release "Oh! Gravity".

Drop D [D A d G B E]

Intro - 2x
E|-----------|
B|-----------|
G|-----------|
D|--7--------|
A|-----9--5--|
D|--9--7--2--|

Verse 1 - 3x
"this one's bout a dream..."
E|-------------------------------------|
B|-------------------------------------|
G|-------------------------------------|
D|--7-7-7-7----------------------------|
A|--x-x-x-x--9-9-9-9--5-5-5-5-5-5-5-5--|
D|--9-9-9-9--7-7-7-7--2-2-2-2-2-2-2-2--|

"something in his eye..."
E|-----------------------------------------------------------------------|
B|-----------------------------------------------------------------------|
G|-----------------------------------------------------------------------|
D|--0-0-0-0--0-0-0-0--0-0-0-0-0-0-0-0--0-0-0-0-0-0-0-0-------------------|
A|--4-4-4-4--5-5-5-5--4-4-4-4-5-5-5-5--4-4-4-4-5-5-5-5--7-7-7-7-7-7-7-7--|
D|--5-5-5-5--5-5-5-5--0-0-0-0-0-0-0-0--5-5-5-5-5-5-5-5--4-4-4-4-4-4-4-4--|

Verse 2 - 3x
"he said 'i've seen you here before'..."
E|-------------------------------------|
B|-------------------------------------|
G|-------------------------------------|
D|--7-7-7-7----------------------------|
A|--x-x-x-x--9-9-9-9--5-5-5-5-5-5-5-5--|
D|--9-9-9-9--7-7-7-7--2-2-2-2-2-2-2-2--|

Guitar 2 - 3x
PM-----------------------------------------------|
E|-----------------------------------------------|
B|-----------------------------------------------|
G|-----------------------------------------------|
D|--0-0-4-4-7--0-0-4-4-7--0-0-2-2-4--0-0-2-2-4---|
A|-----------------------------------------------|
D|-----------------------------------------------|

"everything you see..."
E|-----------------------------------------------------------------------|
B|-----------------------------------------------------------------------|
G|-----------------------------------------------------------------------|
D|--0-0-0-0--0-0-0-0--0-0-0-0-0-0-0-0--0-0-0-0-0-0-0-0-------------------|
A|--4-4-4-4--5-5-5-5--4-4-4-4-5-5-5-5--4-4-4-4-5-5-5-5--7-7-7-7-7-7-7-7--|
D|--5-5-5-5--5-5-5-5--0-0-0-0-0-0-0-0--5-5-5-5-5-5-5-5--4-4-4-4-4-4-4-4--|

Pre-Chorus - 2x
"you have one life..."
E|-----------|
B|-----------|
G|-----------|
D|--7--------|
A|-----9--5--|
D|--9--7--2--|

Verse 3 - 3x
"i woke up from my dream..."
E|-------------------------------------|
B|-------------------------------------|
G|-------------------------------------|
D|--7-7-7-7----------------------------|
A|--x-x-x-x--9-9-9-9--5-5-5-5-5-5-5-5--|
D|--9-9-9-9--7-7-7-7--2-2-2-2-2-2-2-2--|

Guitar 2 - 3x
PM-----------------------------------------------|
E|-----------------------------------------------|
B|-----------------------------------------------|
G|-----------------------------------------------|
D|--0-0-4-4-7--0-0-4-4-7--0-0-2-2-4--0-0-2-2-4---|
A|-----------------------------------------------|
D|-----------------------------------------------|

"something in his eye..."
E|-----------------------------------------------------------------------|
B|-----------------------------------------------------------------------|
G|-----------------------------------------------------------------------|
D|--0-0-0-0--0-0-0-0--0-0-0-0-0-0-0-0--0-0-0-0-0-0-0-0-------------------|
A|--4-4-4-4--5-5-5-5--4-4-4-4-5-5-5-5--4-4-4-4-5-5-5-5--7-7-7-7-7-7-7-7--|
D|--5-5-5-5--5-5-5-5--0-0-0-0-0-0-0-0--5-5-5-5-5-5-5-5--4-4-4-4-4-4-4-4--|

Pre-Chorus - 2x
"you have one life..."
E|-----------|
B|-----------|
G|-----------|
D|--7--------|
A|-----9--5--|
D|--9--7--2--|

Chorus
"what direction?"
E|----------------------------------------------------------|
B|----------------------------------------------------------|
G|----------------------------------------------------------|
D|--5-5--5-5-5-5--7-7--7-7-7-7--9-9--9-9-9-9--7-7--7-7-7-7--|
A|--5-5--5-5-5-5--7-7--7-7-7-7--9-9--9-9-9-9--0-0--0-0-0-0--|
D|--5-5--5-5-5-5--7-7--7-7-7-7--9-9--9-9-9-9--0-0--0-0-0-0--|

"what direction now?"
E|------------------------------------|
B|------------------------------------|
G|------------------------------------|
D|--5-5-5-5-5-5-5-5--7-7-7-7-7-7-7-7--|
A|--5-5-5-5-5-5-5-5--7-7-7-7-7-7-7-7--|
D|--5-5-5-5-5-5-5-5--7-7-7-7-7-7-7-7--|

Verse 3 - 3x
"i looked outside the glass..."
E|-------------------------------------|
B|-------------------------------------|
G|-------------------------------------|
D|--7-7-7-7----------------------------|
A|--x-x-x-x--9-9-9-9--5-5-5-5-5-5-5-5--|
D|--9-9-9-9--7-7-7-7--2-2-2-2-2-2-2-2--|

Guitar 2 - 3x
PM-----------------------------------------------|
E|-----------------------------------------------|
B|-----------------------------------------------|
G|-----------------------------------------------|
D|--0-0-4-4-7--0-0-4-4-7--0-0-2-2-4--0-0-2-2-4---|
A|-----------------------------------------------|
D|-----------------------------------------------|

"as my reflection passed..."
E|-----------------------------------------------------------------------|
B|-----------------------------------------------------------------------|
G|-----------------------------------------------------------------------|
D|--0-0-0-0--0-0-0-0--0-0-0-0-0-0-0-0--0-0-0-0-0-0-0-0-------------------|
A|--4-4-4-4--5-5-5-5--4-4-4-4-5-5-5-5--4-4-4-4-5-5-5-5--7-7-7-7-7-7-7-7--|
D|--5-5-5-5--5-5-5-5--0-0-0-0-0-0-0-0--5-5-5-5-5-5-5-5--4-4-4-4-4-4-4-4--|

Post Chorus
"i wanted to wake up again..."
E|---------------------------------------------------------------------|
B|---------------------------------------------------------------------|
G|---------------------------------------------------------------------|
D|--5-5-5-5-5-5-5-5-5-5-5-5-5-5-5-5--4-4-4-4-4-4-4-4--3-3-3-3-3-3-3-3--|
A|--5-5-5-5-5-5-5-5-5-5-5-5-5-5-5-5--4-4-4-4-4-4-4-4--3-3-3-3-3-3-3-3--|
D|--5-5-5-5-5-5-5-5-5-5-5-5-5-5-5-5--4-4-4-4-4-4-4-4--3-3-3-3-3-3-3-3--|

E|----------------------|
B|----------------------|
G|----------------------|
D|--2-2-2-2-2-2-2-2--7--|
A|--2-2-2-2-2-2-2-2--7--|
D|--2-2-2-2-2-2-2-2--7--|

Guitar 2
"i wanted to wake up again..."
E|------------------------------------------|
B|------------------------------------------|
G|--14-14-14--14-14-14--14-14-14--14-14-14--|
D|--x--x--x---x--x--x---x--x--x---x--x--x---|
A|--12-12-12--12-12-12--12-12-12--12-12-12--|
D|------------------------------------------|

"without a touch of gold..."
E|------------|
B|------------|
G|--14-14-14--|
D|--x--x--x---|[many times]
A|--12-12-12--|
D|------------|

:OPTIONAL:
In the live version of the song Switchfoot added this. You don't have to but it's a fun 
to add to the song when you play it.

E|---------------------------------------------------------------|
B|---------------------------------------------------------------|
G|-------------------6-6--7-7--9-9--11-11--6-6--7-7--9-9--11-11--|
D|--7-7-7-7-7-7-7-7--x-x--x-x--x-x--x--x---x-x--x-x--x-x--x--x---|
A|--7-7-7-7-7-7-7-7--4-4--5-5--7-7--9--9---4-4--5-5--7-7--9--9---|
D|--7-7-7-7-7-7-7-7----------------------------------------------|

E|--------------------------------------------------------|
B|--------------------------------------------------------|
G|--9-9--11-11--12-12--14-14--11-11--12-12--14-14--16-16--|
D|--x-x--x--x---x--x---x--x---x--x---x--x---x--x---x--x---|
A|--7-7--9--9---10-10--12-12--9--9---10-10--12-12--14-14--|
D|--------------------------------------------------------|

E|----------------------------------------------------------|
B|--15-15--14-14--15-15--17-17--15-15--14-14--15-15--19-19--|
G|--x--x---x--x---x--x---x--x---x--x---x--x---x--x---x--x---|
D|--12-12--11-11--12-12--14-14--12-12--11-11--12-12--16-16--|
A|----------------------------------------------------------|
D|----------------------------------------------------------|

Bridge
"what direction?"
2x
PM-----------------------------------------------------------------------|
E|-----------------------------------------------------------------------|
B|-----------------------------------------------------------------------|
G|-----------------------------------------------------------------------|
D|-----------------------------------------------------------------------|
A|--5-5-5-5-5-5-5-5--7-7-7-7-7-7-7-7--9-9-9-9-9-9-9-9--0-0-0-0-0-0-0-0---|
D|--5-5-5-5-5-5-5-5--7-7-7-7-7-7-7-7--9-9-9-9-9-9-9-9--0-0-0-0-0-0-0-0---|

Guitar 2
E|--------|
B|--------|
G|----14--|
D|--14----|
A|--------|
D|--------|

"life begins at the intersection"
E|------------------------------------|
B|------------------------------------|
G|------------------------------------|
D|--5-5-5-5-5-5-5-5--7-7-7-7-7-7-7-7--|
A|--5-5-5-5-5-5-5-5--7-7-7-7-7-7-7-7--|
D|--5-5-5-5-5-5-5-5--7-7-7-7-7-7-7-7--|

Verse 4 - 3x
"i woke as before..."
E|-------------------------------------|
B|-------------------------------------|
G|-------------------------------------|
D|--7-7-7-7----------------------------|
A|--x-x-x-x--9-9-9-9--5-5-5-5-5-5-5-5--|
D|--9-9-9-9--7-7-7-7--2-2-2-2-2-2-2-2--|

"everything had changed..."
E|-----------------------------------------------------------------------|
B|-----------------------------------------------------------------------|
G|-----------------------------------------------------------------------|
D|--0-0-0-0--0-0-0-0--0-0-0-0-0-0-0-0--0-0-0-0-0-0-0-0-------------------|
A|--4-4-4-4--5-5-5-5--4-4-4-4-5-5-5-5--4-4-4-4-5-5-5-5--7-7-7-7-7-7-7-7--|
D|--5-5-5-5--5-5-5-5--0-0-0-0-0-0-0-0--5-5-5-5-5-5-5-5--4-4-4-4-4-4-4-4--|


Outro - 2x
"you have one life..."
E|-----------|
B|-----------|
G|-----------|
D|--7--------|
A|-----9--5--|
D|--9--7--2--|
Tap to rate this tab
 
# A B C D E F G H I J K L M N O P Q R S T U V W X Y Z