Song name
# A B C D E F G H I J K L M N O P Q R S T U V W X Y Z

Switchfoot - Erosion tab

Erosion

Intro/Verse 1:
e--------------------------------------|
B--------------------------------------|
G------97---------9-9--9-9--9--9--9-9--|
D--------9-599975-1010-1010-10-10-1010-|
A-7-10---------------------------------|
E--------------------------------------|

Chorus:
e----------0-0---------------0-0-----|
B----------0-0---------------0-0-----|
G-1-1--44--2-2--44--1-1--44--2-2--44-|
D-2-2--44--2-2--44--2-2--44--2-2--44-|
A-2-2--22--0-0--22--2-2--22--0-0--22-|
E-0-0------x-x------0-0------x-x-----|

e----------0-0------0-0------0-0-----|
B----------0-0------0-0------0-0-----|
G-6-6--44--2-2--44--1-1--44--2-2--44-|
D-6-6--44--2-2--44--2-2--44--2-2--44-|
A-4-4--22--0-0--22--2-2--22--0-0--22-|
E----------x-x------0-0------x-x-----|

Verse 2:
e--------------------------------------------|
B--------------------------------------------|
G-------7---44-4--9--9--9-9--9--9-9----------|
D------9-9-5--5-5-10-10-1010-10-1010--9h109p-|
A-7-10---------------------------------------|
E--------------------------------------------|

Acoustic Bridge Chords: A2, G and, D.

Tabbed by: eraserfree@yahoo.com
Tap to rate this tab
# A B C D E F G H I J K L M N O P Q R S T U V W X Y Z