Song name
# A B C D E F G H I J K L M N O P Q R S T U V W X Y Z

Switchfoot - Stars Acoustic tab

     Artist:Switchfoot
     Album:Nothing is Sound
     Tabbed by:Joshua Leon
    This version of the song can be found on Ares or the "Oh!"Switchfoot EP you
                                                        get with the pre-ordered
very sure this is correct.In case you don't know how to go DADGBe just push on the 6th 
on the 7th fret and tune it to the 5th string till they sound the same.

      Intro               (2x)
     e|-2~0~--2~0~----0~-|----------------------------|
     B|-3~-3~-3~-3~-3~-3~|----------------------------|
     G|-2~--2~0~--0~2~---|----------------------------|
     D|-0~----0~----x----|-2-2/4-4h5-4-4-2-0~---------|
     A|-0~----0~----3~---|-0-0~~-0~~-0-0-0-0~-4-5-0~--|
     D|------------------|-------------------0~-----0~|
       Then...(Gtr.1&2)
     e|--------------------------------------|
     B|--------------------------------------|
     G|--------------------------------------|
     D|-x-x-00000000000000000000000000000000-|
     A|-x-x-00000000000000000000000000000000-|
     D|-x-x-00000000000000000000000000000000-|
       One Gtr.strums the open part and the second does this...
                                 (2x)
     e|------------------------|-------------------------------------------|
     B|------------------------|-------------------------------------------|
     G|-6/7/6/7---11----9------|-6/7/6/7--11--9----13/16/14--6/7--9--7-777-|
     D|-x/x/x/x-00-x-00-x-0000-|-x/x/x/x00-x00x-00--x/-x/-x00x/x00x00x0xxx-|
     A|-4/5/4/5-00-9-00-7-0000-|-4/5/4/500-9007-00-11/14/12004/50070050555-|
     D|---------00---00---0000-|--------00--00--00---------00---00-00-0----|
       Then...
     e|-----------------------------------|
     B|-----------------------------------|
     G|-----------------------------------|
     D|-----------------------------------|
     A|----45--9---7--45---45--9----77777-|
     D|-020--07-045-02--020--07--045------|
       (Again then)
       Verse 1(strum these chords 2x)
     e|----------------|
     B|----------------|
     G|---7---12-7-7-6-|
     D|-0-7-0-12-7-7-7-|
     A|-0-5-0-10-5-7-7-|
     D|-0-5-0-10-5-7-7-|
       
       Pre-Chorus
     e|----------------------------------------------|
     B|----------------------------------------------|
     G|----------------------------------------------|
     D|-777777/9999999/11111111111111/12121212121212-|
     A|-555555/7777777/-9-9-9-9-9-9-9/-r-r-r-r-r-r-r-|
     D|-555555/7777777/-9-9-9-9-9-9-9/-r-r-r-r-r-r-r-|
       Chorus(Strum these)
     e|----------|------------------|-------|
     B|----------|------------------|-------|
     G|---7-12-7-|------------------|-7-4-7-|
     D|-0-7-12-7-|------------------|-7-4-7-|
     A|-0-5-10-5-|----45--9---77777-|-5-2-7-|
     D|-0-5-10-5-|-020--07-045------|-5-2-7-|
       Interlude
     e|-----------------------------------|
     B|-----------------------------------|
     G|-----------------------------------|
     D|-----------------------------------|
     A|----45--9---7--45---45--9---777777-|
     D|-020--07-045-02--020--07-045-------|
       Verse
       Pre-Chorus
       Chorus
       Interlude
       Bridge
     e|-------------------------------------------------|
     B|-------------------------------------------------|
     G|-777-555-777777-------------------777-555-777777-|
     D|-777-666-777777-------------------777-666-777777-|
     A|-555-444-777777----45--9---99999--555-444-777777-|
     D|-555-444-777777-020--07-045-------555-444-777777-|
      (Strum these)
     e|---------------------|
     B|---------------------|
     G|---------------------|
     D|-7-9-11-12-7-9-11-12~|
     A|-5-7--9-10-5-7--9-10~|
     D|-5-7--9-10-5-7--9-10~|
       Outro                             (Strum these)
     e|-2~0~--2~0~-----------------------|-------|
     B|-3~-3~-3~-3~-3~-------------------|-------|
     G|-2~--2~0~--0~2~-------------------|-7-4-7~|
     D|-0~----0~----x~-------------------|-7-4-7~|
     A|-0~----0~----3~----45--9---777777-|-5-2-7~|
     D|----------------020--07-045-------|-5-2-7~|

        
     That's it.Enjoy.God bless.
                            -Josh
Tap to rate this tab
 
# A B C D E F G H I J K L M N O P Q R S T U V W X Y Z