Song name
# A B C D E F G H I J K L M N O P Q R S T U V W X Y Z

Switchfoot - Rebuild tab

-------------------------------------------------------------------------------
			     Rebuild - Switchfoot (with Relient K)
-------------------------------------------------------------------------------
Tabbed by: Kayla
Email: kaylanmc@hotmail.com


I am fully aware that this tab is not perfect, but I gave it my best shot,
and it is better than no tab. This is for lead/electric guitar, even though
the main guitar work is done on an acoustic. As far as I know, this is the
only tab with any sort of solo. Please feel free to email corrections or
fix any wrong parts on your own.

Tuning: standard

e|--------------------------------------------------------------------------|
B---------------------------------------------------------------------------|
G|--------------------------------------------------------------------------|
D|--4/5-5-5-5-5---5---------------------------------------------------------|
A|----------------5---------------------------------------------------------|
E|--------------4-3---------------------------------------------------------|

                    Watching the world with my highway eyes.  Watching the


e|--------------------------------------------------------------------------|
B|--------------------------------------------------------------1-1--0------|
G|--------------------------------------------------------------0-0--0------|
D|--------------------------------------------------------------2-2--0------|
A|--------------------------------------------------------------3-3--x------|
E|-------------------------------------------------------------------3------|

 world from the windows that I've known-  these mobile homes.


e|--------------------------------------------------------------------------|
B|--------------------------------------------------------------------------|
G|--------------------------------------------------------------------------|
D|--------------------------------------------------------------------------|
A|--------------------------------------------------------------------------|
E|--------------------------------------------------------------------------|

     Loneliness was a friend of mine. But with you that's through and I feel


e|--------------------------------------------------------------------------|
B|--------------------------------------------------------------------------|
G|--------------------------------------------------------------------------|
D|-------------------------------------------------------5-5----------------|
A|-------------------------------------------------------5-5----------------|
E|-------------------------------------------------------3-3----------------|

   home away from home. Away from home, away from home.	Oh-way-oh


e|--------------------------------------------------------------------------|
B|--------------------------------------------------------------------------|
G|-------------------------------------------------------9------------------|
D|-------------------------------------------------------9------------------|
A|-------------------------------------------------------7------------------|
E|--------------------------------------------------------------------------|

   we're the regeneration. Oh-way-oh with time to kill. Oh-way-oh we're the


e|--------------------------------------------------------------------------|
B|--------------------------------------------------------------------------|
G|--7-------------5---------------------------------------------------------|
D|--7-------------5---------------------------------------------------------|
A|--5-------------3---------------------------------------------------------|
E|--------------------------------------------\3-3-3-3-3-3-3-3-3-3-3-3/15-15|

	   regeneration. Oh-way-oh rebuild, rebuild.


e|--------------------------------------------------------------------------|
B|--------------------------------------------------------------------------|
G|--------------------------------------------------------------------------|
D|-------------------------------5------------------------------------------|
A|-------------------------------5------------------------------------------|
E|-15-15-15-15-15-15-15-15-15-15\3------------------------------------------|

                                 We made a fire in the pouring rain, but


e|--------------------------------------------------------------------------|
B|---------------------------------------------------------1-1-1--0---------|
G|---------------------------7--------------7--------------0-0-0--0---------|
D|------------------------/9---9----------9---9p7----------2-2-2--0---------|
A|-------------------------------10---------------10-------3-3-3--x---------|
E|----------------------------------------------------------------3---------|

      there's so many noisy voices. Oh! I get so cold.                 The


e|--------------------------------------------------------------------------|
B|--------------------------------------------------------------------------|
G|--------------------------------------------------------------------------|
D|--------------------------------------------------------------------------|
A|--------------------------------------------------------------------------|
E|--------------------------------------------------------------------------|

     city lights and the midnight train - I hate to say it but I get caught


e|--------------------------------------------------------------------------|
B|----------------10b12-10p8-8-----------------------8b10r8-8---------------|
G|---0-0-0-0---------------------------------------7------------------------|
D|---2-0-2-0-------------------------------------9--------------------------|
A|---3-2-3-2----------------------------------------------------------------|
E|--------------------------------------------------------------------------|

    letting go of the things I know                          Do not conform


e|--------------------------------------------------------------------------|
B|--------------------------------------------------------------------------|
G|---------------------------------------------------7----------------------|
D|--------------------------5---------------------/9---9--------------------|
A|--------------------------5----------------------------10-----------------|
E|--------------------------3-----------------------------------------------|

   to this; do not conform. Oh-way-oh we're the regeneration. Oh-way-oh with


e|--------------------------------------------------------------------------|
B|--------------------------------------------------------------------------|
G|--------------9-----------------------7-----------5-----------------------|
D|--------------9-----------------------7-----------5-----------------------|
A|--------------7-----------------------5-----------3-----------------------|
E|--------------------------------------------------------------------------|

   time to kill. Oh-way-oh we're the regeneration. Oh-way-oh rebuild, rebuild


e|--------------------------------------------------------------------------|
B|-17--17--17--17--17--17--17--17--17--17--17--17--17--17--17--17--17--17---|
G|-16--16--16--16--16--16--16--16--16--16--16--16--16--16--16--16--16--16---|
D|-14--14--14--14--14--14--14--14--14--14--14--14--14--14--14--14--14--14---|
A|--------------------------------------------------------------------------|
E|--------------------------------------------------------------------------|

	Every life comes with a broken heart dying here to be made whole. We
	are the lost souls with a second start following the builder home.
	There's a temple I've found in the strangest part where the stones are
	built of souls - where the builder himself has promised, "Love, I'm
	never going to let you go." Go!

CHORUS (acoustic only)


e|------------------10-----------------------10-----------------------------|
B|-b12r10-8-8h10b12----12r10-8-----8---10b12----12r10-8----12-10-12-10-8-8\-|
G|-----------------------------9-7----------------------9-------------------|
D|--------------------------------------------------------------------------|
A|--------------------------------------------------------------------------|
E|--------------------------------------------------------------------------|

   Oh-way-oh we're the regeneration.    Oh-way-oh with time to kill.


e|--------------------------------------------------------------------------|
B|---------------------------------------------8-8-10-10-8-10b12r10---------|
G|-------------/9-7-9-7--------------------7-9------------------------------|
D|----------------------10-9----------9-10----------------------------------|
A|--------------------------------------------------------------------------|
E|--------------------------------------------------------------------------|

   Oh-way-oh we're the regeneration.    Oh-way-oh rebuild rebuild.


e|-------10---------------10------------------------------------------------|
B|-10b12----12r10-8-10b12----12r10-8--10b12-12-12r10-8----------------------|
G|--------------------------------------------------------------9b11--------|
D|--------------------------------------------------------------------------|
A|--------------------------------------------------------------------------|
E|--------------------------------------------------------------------------|

   [repeat chorus]


e|--------------------------------------------------------------------------|
B|--------------------------------------------------------------------------|
G|--------------------------------------------------------------------------|
D|---------------------------------------------5----------------------------|
A|---------------------------------------------5----------------------------|
E|--\3-3-3-3-3-3-3-3-3-3-3-3/15-15-15-15-15-15\-3---------------------------|

| /  slide up
| \  slide down
| h  hammer-on
| p  pull-off
| ~  vibrato
| +  harmonic
| x  Mute note
===============================================================================
Tap to rate this tab
# A B C D E F G H I J K L M N O P Q R S T U V W X Y Z