Song name
# A B C D E F G H I J K L M N O P Q R S T U V W X Y Z

Swollen Members - Steppin Thru tab

http://www.swollenmembers.com

-------------------------------------------------------------------------------
			     STEPPIN' THRU - Swollen Members
-------------------------------------------------------------------------------

Tabbed by: Corey Kelly
Email: paradox_in_a_box@hotmail.com

Tuning: Standard

This plays through the whole song:

e|---5p3-5---5--5--3---------------------------------------------------------|
B|--------------------6-5-3---2-3----3-3--3-3--------------------------------|
G|---------------------------------------------------------------------------|
D|---------------------------------------------------------------------------|
A|---------------------------------------------------------------------------|
E|---------------------------------------------------------------------------|


The very last time, it goes like this:

e|---5p3-5---5--5------------------------------------------------------------|
B|-----------------5--6--2--3------------------------------------------------|
G|---------------------------------------------------------------------------|
D|---------------------------------------------------------------------------|
A|---------------------------------------------------------------------------|
E|---------------------------------------------------------------------------|


That's all!
Tap to rate this tab
 
# A B C D E F G H I J K L M N O P Q R S T U V W X Y Z