Song name
# A B C D E F G H I J K L M N O P Q R S T U V W X Y Z

Swollen Members - Fuel Injected tab

Song: Fuel Injected
Album: Bad Dreams [2001]
Words and Music by: Swollen Members
Re-written by: Joey Lavoie [whats_this_dump@hotmail.com]

-------------------------------------------------------------------------------
Played in standard tuning  [low to high: E A D G B E].
-------------------------------------------------------------------------------

E|---------------------------------------------------------------------------|
B|---------------------------------------------------------------------------|
G|------9------9---------------------9------9--------------------------------|
D|---------12-----10--12--9--10---------12-----10--12--9--7------------------|
A|--12---------------------------12------------------------------------------|
E|---------------------------------------------------------------------------|

E|---------------------------------------------------------------------------|
B|---------------------------------------------------------------------------|
G|------7------7-------------------9------9----------------------------------|
D|---------10-----9--10--9--7---------12-----10--12--9--10-------------------|
A|--10-------------------------11--------------------------------------------|
E|---------------------------------------------------------------------------|

E|-----------------------------------|
B|-----------------------------------|
G|------9------9---------------------|
D|---------12-----10--12--9--10------|
A|--12---------------------------12--|
E|-----------------------------------|


----------------------------------------------------------------------------------

Questions? Comments? Hate mail? Send it all over to whats_this_dump@hotmail.com
Tap to rate this tab
# A B C D E F G H I J K L M N O P Q R S T U V W X Y Z