Guitaretab - guitar tabs
Song name
# A B C D E F G H I J K L M N O P Q R S T U V W X Y Z

Swollen Members - Watch This tab

-------------------------------------------------------------------------------
	                 Watch This - Swollen Members
-------------------------------------------------------------------------------
Tabbed by:Sound Mind
Email:kagenecros@hotmail.com

Tuning:Standard

[ Tab from: http://www.guitaretab.com/s/swollen-members/47180.html ]
Main theme:
e|---3-3-3-----5-5-5-----2-2-2-----3-3-3-------------------------------------|
B|---------------------------------------------------------------------------|
G|---------------------------------------------------------------------------|
D|---------------------------------------------------------------------------|
A|---------------------------------------------------------------------------|
E|---------------------------------------------------------------------------|
 |                                                                           |
e|3---------5---------2---------3--------------------------------------------|
B|3---------5---------2---------3--------------------------------------------|
G|---------------------------------------------------------------------------|
D|---------------------------------------------------------------------------|
A|---------------------------------------------------------------------------|
E|---------------------------------------------------------------------------|

Little background riff:
e|5---5--5---5-7-5-----------------------------------------------------------|
B|--8------8-------8-5-------------------------------------------------------|
G|---------------------------------------------------------------------------|
D|---------------------------------------------------------------------------|
A|---------------------------------------------------------------------------|
E|---------------------------------------------------------------------------|

| /  slide up
| \  slide down
| h  hammer-on
| p  pull-off
| ~  vibrato
| +  harmonic
| x  Mute note
===============================================================================
Related for Watch This tab