Song name
# A B C D E F G H I J K L M N O P Q R S T U V W X Y Z

Sword - Land Of The Brave tab

SWORD : Land Of The Brave
Album : Sweet Dreams (1988)
Tab   : Derek

d#-------------------------------------------------------------------------|
a#-------------------------------------------------------------------------|
f#-------------------------------------------------------------------------|
c#---2h3p2p0-2~~ ------2h3p2p0-2--------2h3p2p0-2~~-----2h3p2p0--2---------|
g#-------------------------------2-2-------------------------------2-2-----|
d#-0--------------2~~~~ -------------3~~ -----------2~~~~------------------|


d#-------------------------------------------------------------------------|
a#-------------------------------------------------------------------------|
f#-------------------------------------------------------------------------|
c#---------------------2-------------------------2-0------4//5-------------|
g#--------2--3~~~ --------2~~~~ ------2--3~~ --------3-2--2//3-------------|
d#-0-0-----------0-0-----------0-0-----------0-0---------------------------|


    WAR	  SLAUGHTERS THE EARTH
d#-------------------------------------------------------------------------|
a#--5-----6-----5----3-----------------------------------------------------|
f#--5-----5-----4----2--------------------------------5-4-2~~~--REPEAT-----|
c#--5-----3-----2----0-------------3~~ ------2--------3-2-0----------------|
g#--3----------------------------------------------------------------------|
d#------------------------00-00-00-----0-00---=-0-00-----------------------|
Tap to rate this tab
# A B C D E F G H I J K L M N O P Q R S T U V W X Y Z