Song name
# A B C D E F G H I J K L M N O P Q R S T U V W X Y Z

Sworn And Broken - Clouds tab

CLOUDS
Sworn and Broken
Words and music by Sworn and Broken
? 2002 Sickman?s music

Acoustic guitars
Intro
e------------------------------------------------------------|
B------------------------------------------------------------|
G------------------------------------------------------------|
D-------7------------7-------------7--------------7----------|
A-----------7---------------------------7--------------------|
E----5-----------5---------5---5------------5-----------5----|

e------------------------------------------------------------|
B------------------------------------------------------------|
G------------------------------------------------------------|
D-------5------------5-------------5--------------5----------|
A-----------5---------------------------5--------------------|
E----3-----------3---------3---3------------3-----------3----|

Verse
Guitar 1
e------------------------------------------------------------|
B------------------------------------------------------------|
G------------------------------------------------------------|
D-----7---7---7---7---7---7---7-------5---5---5---5---5---5--|
A-----5---5---5---5---5---5---5-------3---3---3---3---3---3--|
E-----5---5---5---5---5---5---5-------3---3---3---3---3---3--|

Guitar 2
e------------------------------------------------------------|
B------------------------------------------------------------|
G------------------------------------------------------------|
D-------7------------7-------------7--------------7----------|
A-----------7---------------------------7--------------------|
E----5-----------5---------5---5------------5-----------5----|

e------------------------------------------------------------|
B------------------------------------------------------------|
G------------------------------------------------------------|
D-------5------------5-------------5--------------5----------|
A-----------5---------------------------5--------------------|
E----3-----------3---------3---3------------3-----------3----|

Guitar 1 and 2
e------------------------------------------------------------|
B------------------------------------------------------------|
G------------------------------------------------------------|
D---5---5---5---5---5---5---5---5---5---5---X---X---X---5----|
A---5---5---5---5---5---5---5---5---5---5---X---X---X---5----|
E---3---3---3---3---3---3---3---3---3---3---X---X---X---3----|


Chorus
e------------------------------------------------------------|
B------------------------------------------------------------|
G------------------------------------------------------------|
D---4---4---4---4---4/6---------6---6---6---6---6------------|
A---4---4---4---4---4/6---------6---6---6---6---6------------|
E---2---2---2---2---2/4---------4---4---4---4---4------------|

Verse
Play chorus two times

Bridge
Guitar 1
e------------------------------------------------------------|
B------------------------------------------------------------|
G------------------------------------------------------------|
D---3---3---3---3---3---3---3---4---4---4---4---4---4---4----|
A---3---3---3---3---3---3---3---4---4---4---4---4---4---4----|
E---1---1---1---1---1---1---1---2---2---2---2---2---2---2----|

Guitar 2
e------------------------------------------------------------|
B------------------------------------------------------------|
G------------------------------------------------------------|
D--------7------7------7------7------8------8------8------8--|
A------7------7------7------7------8------8------8------8----|
E----5------5------5------5------6------6------6------6------|

Play chorus
Bridge
Chorus two times

First verse
Clouds, do you find them low?
How, I really don?t know

Chorus
Do you mind if I stay?
Clouds turned into gray
It would take for a day
I think it?s not sane

2nd verse
Now, where should I go?
Down, dealing with old wounds

Chorus

Bridge
Come on! Blame it on me
Go on! Leave me down here

Chorus
Bridge
Chorus (2 times)
Tap to rate this tab
# A B C D E F G H I J K L M N O P Q R S T U V W X Y Z