Song name
# A B C D E F G H I J K L M N O P Q R S T U V W X Y Z

Sworn Enemy - Fear For Failure tab

Tabbed By - H8myself
Tuning- Eb 

|------------------------|
|------------------------|
|------------------------|   
|-3----4----2----4--3----|
|-1----2----2----4--3----|
|-1----2----0----2--1----|

|--------------------------------------------|
|--------------------------------------------|
|--------------------------------------------|   
|--------------------------------------------|   
|----7-7-8-11-8-8-5--7h8p5h7-----------------|
|-00-0-0-0---0-0-0-0-------------------------|
  ** *  *  *    *  * *  *                    *PM

|----------------------------------------------------------|
|----------------------------------------------------------|
|----------------------------------------------------------|
|----------------------------------------------------------|
|------3------3----11p8-7----------------------------------|
|-000001-000001-000----------------------------------------|
  ***** *****   ***                                        *PM

|------------------------------------------------------------|
|------------------------------------------------------------|
|------------------------------------------------------------|
|------------------------------------------------------------|
|------3----11p8-8p7-7p5-3h5p3-------------------------------|
|-000001-000----0---0---0------------------------------------|
  *****  ***    *   *   *

|-----------------------------------------------|
|-----------------------------------------------|
|-----------------------------------------------|
|-----------------------------------------------|
|-----------------------------------------------|
|00000000888888885555555577771111---------------|
********************************                *PM

Listen song to get right timing and how much which part repeat.
Thank you for using this tabs.
Please rate , I hope you like it :)
Tap to rate this tab
# A B C D E F G H I J K L M N O P Q R S T U V W X Y Z