Guitaretab - guitar tabs
Song name
# A B C D E F G H I J K L M N O P Q R S T U V W X Y Z

Sworn Enemy - We Hate tab

There's another guitar on the track, but just about everything it plays is either
from this tab in one form or another, or extremely easy to figure out. As far as I'm
everything sounds correct, except the pinch harmonics in the choruses may be off. If 
is willing to send me what they actually are, I'll update the tab and credit who you are.

Main Riff: x4

Eb---------------------------------------------------------------------|
Bb---------------------------------------------------------------------|
Gb---------------------------------------------------------------------|
Db-----------9s10s9---------10s12s10----------9s10s9-----10s7-----7s10-|
Ab-----------7s-8s7----------8s10s-8----------7s-8s7------8s5-----5s-8-|
Eb---0-0-0-0---------0-0-0-0----------0-0-0-0---------0-0-----0-0------|
PM...*.*.*.*.........*.*.*.*..........*.*.*.*.........*.*.....*.*

Eb--------------------------------------------------------------------|
Bb--------------------------------------------------------------------|
Gb--------------------------------------------------------------------|
Db-----------9s10s9---------10s12s10----------9s10s9------9p7---------|
Ab-----------7s-8s7----------8s10s-8----------7s-8s7--------------8p7-|
Eb---0-0-0-0---------0-0-0-0----------0-0-0-0---------0-0-----0-0-----|
PM...*.*.*.*.........*.*.*.*..........*.*.*.*.........*.*.....*.*

Chorus:

Eb--------------------------------------------------------------------|
Bb--------------------------------------------------------------------|
Gb---------------------------------------------------------P.H--------|
Db-------------------------------------HOLD-----------------9~--------|
Ab---222-222-2----222-222-2----222-222-2-(2)----222-222-2-------------|
Eb---000-000-0----000-000-0----000-000-0-(0)----000-000-0-------------|
PM...***.***.*....***.***.*....***.***..........***.***.*

Eb--------------------------------------------------------------------|
Bb--------------------------------------------------------------------|
Gb--------------------------------------------------------------------|
Db----------------------------------HOLD------------------------------|
Ab---2-2--2-2----2-2--2-2----2-2--2-2-(2)----2-2--2-2-----------------|
Eb---0-0--0-0----0-0--0-0----0-0--0-0-(0)----0-0--0-0-----------------|
PM...*.*..*.*....*.*..*.*....*.*..*-*........*.*..*.*

Riff 2: x2

Eb--------------------------------------------------------------------|
Bb--------------------------------------------------------------------|
Gb--------------------------------------------------------------------|
Db---------------9--------------8-------------10------9p7-----6-------|
Ab---------------7--------------6--------------8--------------6-------|
Eb---000-000-000-7--000-000-000-6--000-000-000-8--000-----000-4-------|
PM...***.***.***....***.***.***....***.***.***....***.....***

Eb--------------------------------------------------------------------|
Bb--------------------------------------------------------------------|
Gb--------------------------------------------------------------------|
Db---------------9--------------8-------------10------9p7-----3-------|
Ab---------------7--------------6--------------8--------------3-------|
Eb---000-000-000-7--000-000-000-6--000-000-000-8--000-----000-1-------|
PM...***.***.***....***.***.***....***.***.***....***.....***


Chorus:

Eb--------------------------------------------------------------------|
Bb---------------------------------------------------------P.H--------|
Gb----------------------------------------------------------16--------|
Db-------------------------------------HOLD---------------------------|
Ab---222-222-2----222-222-2----222-222-2-(2)----222-222-2-------------|
Eb---000-000-0----000-000-0----000-000-0-(0)----000-000-0-------------|
PM...***.***.*....***.***.*....***.***..........***.***.*
[ Tab from: http://www.guitaretab.com/s/sworn-enemy/188095.html ]
Eb--------------------------------------------------------------------|
Bb--------------------------------------------------------------------|
Gb--------------------------------------------------------------------|
Db----------------------------------HOLD------------------------------|
Ab---2-2--2-2----2-2--2-2----2-2--2-2-(2)----2-2--2-2-----------------|
Eb---0-0--0-0----0-0--0-0----0-0--0-0-(0)----0-0--0-0-----------------|
PM...*.*..*.*....*.*..*.*....*.*..*..........*.*..*.*

Riff 2: x2

Eb--------------------------------------------------------------------|
Bb--------------------------------------------------------------------|
Gb--------------------------------------------------------------------|
Db---------------9--------------8-------------10------9p7-----6-------|
Ab---------------7--------------6--------------8--------------6-------|
Eb---000-000-000-7--000-000-000-6--000-000-000-8--000-----000-4-------|
PM...***.***.***....***.***.***....***.***.***....***.....***

Eb--------------------------------------------------------------------|
Bb--------------------------------------------------------------------|
Gb--------------------------------------------------------------------|
Db---------------9--------------8-------------10------9p7-----3-------|
Ab---------------7--------------6--------------8--------------3-------|
Eb---000-000-000-7--000-000-000-6--000-000-000-8--000-----000-1-------|
PM...***.***.***....***.***.***....***.***.***....***.....***

Bridge:

Eb---------------|
Bb---------------|
Gb---HOLD--------|HOLD
Db---2------3----|
Ab---2------1----|
Eb---0------1----|

Modified Chorus:

Eb--------------------------------------------------------------------|
Bb--------------------------------------------------------------------|
Gb--------------------------------------------------------------------|
Db-------------------------------------HOLD---------------------------|
Ab---222-222-2----222-222-2----222-222-2-(2)----222-222-2-------------|
Eb---000-000-0----000-000-0----000-000-0-(0)----000-000-0------------|
PM...***.***.*....***.***.*....***.***..........***.***.*

Breakdown: Slides only go in on 1st and 3rd time. End of song is on breakdown riff, but
fades out on an Open Eb power chord.

Eb--------------------------------------------------------------------|
Bb--------------------------------------------------------------------|
Gb--------------------------------------------------------------------|
Db--------------------------------------------------------------------|
Ab---222----222-222-222----222----222-222-222-----12//0---------------|
Eb---000----000-000-000----000----000-000-000-0-0-12//0---------------|
PM...***....***.***.***....***....***.***.***.*.*

Eb--------------------------------------------------------------------|
Bb--------------------------------------------------------------------|
Gb--------------------------------------------------------------------|
Db--------------------------------------------------------------------|
Ab---222----222-222-222----222----222-222-222-------------------------|
Eb---000----000-000-000----000----000-000-000-------------------------|
PM...***....***.***.***....***....***.***.***


Riff 3: x2

Eb--------------------------------------------------------------------|
Bb--------------------------------------------------------------------|
Gb--------------------------------------------------------------------|
Db-------9p7-------------9p7------------------------------------------|
Ab---------------8p7---------10h7-6h9---------------------------------|
Eb---000-----000-----000----------------------------------------------|
PM...***.....***.....***

Eb--------------------------------------------------------------------|
Bb--------------------------------------------------------------------|
Gb--------------------------------------------------------------------|
Db-------9p7-------------9p7------------------------------------------|
Ab---------------8p7---------10h7-6h9p6-------------------------------|
Eb---000-----000-----000----------------------------------------------|
PM...***.....***.....***
Related for We Hate tab