Song name
# A B C D E F G H I J K L M N O P Q R S T U V W X Y Z

Sybreed - Lucifer Effect tab

-------------------------------------------------------------------------------
			     Lucifer Effect - Sybreed
-------------------------------------------------------------------------------
Tabbed by:Khaki-Buzzard
Email:metalingoose@msn.com

Tuning:Drop B

This is my first ever tab so there is bound to be some mistakes. This is the tuning I
the song in an it sounds pretty good so i hope you all enjoy the tab. I haven't tabbed the
part of the song because the rhythm is pretty strange and hard to work out. I have 
the palm muted section of the ending though, so enjoy!

Intro x2
C#|-------------------------------------|
G#|-------------------------------------|
 E|-------------------------------------|
 B|-2--------2-----2-3-----3------------|
F#|-2--------2-----2-3-----3------------|
 B|-2-222222-2-2-2-2-3-3-3-3-000333-----|
P.M   ------   ---     -----------------|

C#|----------------------------------------|
G#|----------------------------------------|
 E|----------------------------------------|
 B|-2--------2-----2-3---0-----------------|
F#|-2--------2-----2-3---0-----------------|
 B|-2-222222-2-2-2-2-3-0-0-3-2-0-2-1-0-----|
P.M   ------   ---     -   ----------------|

C#|-------------------------------------|
G#|-------------------------------------|
 E|-------------------------------------|
 B|-2--------2-----2-3-----3------------|
F#|-2--------2-----2-3-----3------------|
 B|-2-222222-2-2-2-2-3-3-3-3-000333-----|
P.M   ------   ---     -----------------|

C#|-------------------------------------|
G#|-------------------------------------|
 E|-------------------------------------|
 B|-2--------2-----2-3------------------|
F#|-2--------2-----2-3------------------|
 B|-2-222222-2-2-2-2-3-000000000000-----|
P.M   ------   -------------------------|

Verse x3
C#|-----------------------|
G#|-----------------------|
 E|-----------------------|
 B|-0---0-----0-3-0-6-0---|
F#|-0-0---0---0-3-0-6-0---|
 B|-0-------0-0-3-0-6-0---|

Verse x1
C#|-------------|
G#|-------------|
 E|-------------|
 B|-0---0-------|
F#|-0-0---0-----|
 B|-0-------0---|

Verse x3
C#|-----------------------|
G#|-----------------------|
 E|-----------------------|
 B|-0---0-----0-3-0-6-0---|
F#|-0-0---0---0-3-0-6-0---|
 B|-0-------0-0-3-0-6-0---|

Verse x1
C#|--------------------------|
G#|--------------------------|
 E|--------------------------|
 B|-0---0-----333333333333---|
F#|-0-0---0---333333333333---|
 B|-0-------0-333333333333---|

Chorus x2
C#|---------------------------------------------------|
G#|---------------------------------------------------|
 E|---------------------------------------------------|
 B|-9-9---9-9-7h9--9-9---9-9-7-555555555555-0-3-3-0---|
F#|-9-9---9-9-7h9--9-9---9-9-7-555555555555-0-3-3-0---|
 B|-9-9-9-9-9-7h9--9-9-9-9-9-7-555555555555-0-3-3-0---|
P.M     -              -

C#|-------------------------------------------------------|
G#|-------------------------------------------------------|
 E|-------------------------------------------------------|
 B|-9-9---9-9-x-x--9-9---9-9-9-555555555555333333333333---|
F#|-9-9---9-9-x-x--9-9---9-9-9-555555555555333333333333---|
 B|-9-9-9-9-9-x-x--9-9-9-9-9-9-555555555555333333333333---|
P.M     -              -

Intro x1
C#|-------------------------------------|
G#|-------------------------------------|
 E|-------------------------------------|
 B|-2--------2-----2-3-----3------------|
F#|-2--------2-----2-3-----3------------|
 B|-2-222222-2-2-2-2-3-3-3-3-000333-----|
P.M   ------   ---     -----------------|

C#|----------------------------------------|
G#|----------------------------------------|
 E|----------------------------------------|
 B|-2--------2-----2-3---0-----------------|
F#|-2--------2-----2-3---0-----------------|
 B|-2-222222-2-2-2-2-3-0-0-3-2-0-2-1-0-----|
P.M   ------   ---     -   ----------------|

C#|-------------------------------------|
G#|-------------------------------------|
 E|-------------------------------------|
 B|-2--------2-----2-3-----3------------|
F#|-2--------2-----2-3-----3------------|
 B|-2-222222-2-2-2-2-3-3-3-3-000333-----|
P.M   ------   ---     -----------------|

C#|-------------------------------------|
G#|-------------------------------------|
 E|-------------------------------------|
 B|-2--------2-----2-3------------------|
F#|-2--------2-----2-3------------------|
 B|-2-222222-2-2-2-2-3-000000000000-----|
P.M   ------   -------------------------|

Verse x3
C#|-----------------------|
G#|-----------------------|
 E|-----------------------|
 B|-0---0-----0-3-0-6-0---|
F#|-0-0---0---0-3-0-6-0---|
 B|-0-------0-0-3-0-6-0---|

Verse x1
C#|-------------|
G#|-------------|
 E|-------------|
 B|-0---0-------|
F#|-0-0---0-----|
 B|-0-------0---|

Verse x3
C#|-----------------------|
G#|-----------------------|
 E|-----------------------|
 B|-0---0-----0-3-0-6-0---|
F#|-0-0---0---0-3-0-6-0---|
 B|-0-------0-0-3-0-6-0---|

Verse x1
C#|--------------------------|
G#|--------------------------|
 E|--------------------------|
 B|-0---0-----333333333333---|
F#|-0-0---0---333333333333---|
 B|-0-------0-333333333333---|

Chorus x2
C#|---------------------------------------------------|
G#|---------------------------------------------------|
 E|---------------------------------------------------|
 B|-9-9---9-9-7h9--9-9---9-9-7-555555555555-0-3-3-0---|
F#|-9-9---9-9-7h9--9-9---9-9-7-555555555555-0-3-3-0---|
 B|-9-9-9-9-9-7h9--9-9-9-9-9-7-555555555555-0-3-3-0---|
P.M     -              -

C#|-------------------------------------------------------|
G#|-------------------------------------------------------|
 E|-------------------------------------------------------|
 B|-9-9---9-9-x-x--9-9---9-9-9-555555555555333333333333---|
F#|-9-9---9-9-x-x--9-9---9-9-9-555555555555333333333333---|
 B|-9-9-9-9-9-x-x--9-9-9-9-9-9-555555555555333333333333---|
P.M     -              -

Bridge x4
C#|-----------------------------------------------------------------|
G#|-----------------------------------------------------------------|
 E|-----------------------------------------------------------------|
 B|-----------------------------------------------------------------|
F#|-----------------------------------------------------------------|
 B|-2002002b-2222222222222222222-333000-3-2-0-333000-2b-0-2-2-3-0---|
P.M  -- --    -- -- -- -- -- --  ------ ----- ------    -

Fill x1
C#|------------------------|
G#|------------------------|
 E|------------------------|
 B|-12-12-12----12-12-12---|
F#|-12-12-12----12-12-12---|
 B|-12-12-12-12-12-12-12---|
P.M          --

Chorus x2
C#|---------------------------------------------------|
G#|---------------------------------------------------|
 E|---------------------------------------------------|
 B|-9-9---9-9-7h9--9-9---9-9-7-555555555555-0-3-3-0---|
F#|-9-9---9-9-7h9--9-9---9-9-7-555555555555-0-3-3-0---|
 B|-9-9-9-9-9-7h9--9-9-9-9-9-7-555555555555-0-3-3-0---|
P.M     -              -

C#|-----------------------------------------------------|
G#|-----------------------------------------------------|
 E|-----------------------------------------------------|
 B|-9-9---9-9-x-x--9-9---9-9-555555555555333333333333---|
F#|-9-9---9-9-x-x--9-9---9-9-555555555555333333333333---|
 B|-9-9-9-9-9-x-x--9-9-9-9-9-555555555555333333333333---|
P.M     -              -

Outro x1 (This is all i could figure for this part)
C#|------------------------------------------------------------|
G#|------------------------------------------------------------|
 E|------------------------------------------------------------|
 B|------------------------------------------------------------|
F#|------------------------------------------------------------|
 B|-44-444---44-44---4---44-44---44-4444---4---44-44---4-4-4---|
P.M -- ---   -- --   -   -- --   -- ----   -   -- --   - - -

************************************

| /   slide up
| \   slide down
| h   hammer-on
| p   pull-off
| ~   vibrato
| +   harmonic
| x   Mute note
| b   Bend
| pb  Pre-bend
| br  Bend release
| pbr Pre-bend release
| brb Bend release bend

************************************
Tap to rate this tab
 
# A B C D E F G H I J K L M N O P Q R S T U V W X Y Z