Song name
# A B C D E F G H I J K L M N O P Q R S T U V W X Y Z

Syd Barrett - Vegetable Man tab

Artist: Syd Barrett
Song: Vegetable Man 
Tunning: standard with capo on 1, all tab relitive to capo
Tabbed By: Indie Nation 


             dedicated to syd himself the founder of Pink Floyd
                   a true artist in every way possible



Chords:
  
G  G# A  A#  B  E  D/F#   A#  C   F
3  4  5  6   7  0 (2)     1   0   1
3  4  5  6   7  0  3      3   1   1
4  5  6  7   8  1  2      3   0   2
5  6  7  8   9  2  0      3   2   3
5  6  7  8   9  2  0      1   3   3
3  4  5  6   7  0  2      x   x   1
 
intro:
|-8-8/13-10------------------------------------|
|----------------------------------------------|
|-5-5/10-7-------------------------------------|
|----------------------------------------------|
|------------4p3h4p3h4p3h4p3h4p3h4p3h4p3h4p3h4-|
|----------------------------------------------|


G
In yellow shoes I get the blues
G
Though I walk the street with my plastic feet
G#
With blue velvet trousers make me feel pink
G#
There's a kind of stink about blue velvet trousers
A
In my paisley shirt I look a jerk
A
And my turquoise waistcoat is quite outta sight
A#
But oh, oh, my haircut looks so fair
B
Vegetable Man, how are you?

G
So I've change my gear and I find my knees
G
And I cover them up with the latest cut
G#
And my pants and socks, a vault in a box
G#
It don't take long for my dyed old socks
A
The watch, black watch, my watch with a black face
A
And a date in a little hole
A#
And all the lot, it's what I got, it's what I wear
A#
It's what you see, it must be me, it's what I am!
B
Vegetable Man

  Ah  Ah Ah Ah  Ah Ah Ah
|------------------------|
|------------------------|
|------------------------|
|-------------------1----|
|-2----0---------4-----2-|
|---------3--2-----------|

  Ah  Ah Ah Ah  Ah Ah Ah
|------------------------|
|------------------------|
|------------------------|
|-------------------1----|
|-2----0---------4-----2-|
|---------3--2-----------|


D                     C
I've been looking all over the place 
      G#
for a place for me.
F#            E        F#    G#         A#  E
 But it ain't anywhere,   it just ain't anywhere

|------------------------------------|
|------------------------------------|
|------------------------------------|
|------------------------------------|
|-------3--------3--------3--------3-|
|-1--4-----1--4-----1--4-----1--4----|

|------------------------------------|
|------------------------------------|
|------------------------------------|
|-------3--------3-------------------|
|-1--4-----1--4-----------3--------3-|
|-------------------1--4-----1--4----|

|------------------------------|
|------------------------------|
|-5----------------------------|
|-5--3--5--------3-------------|
|-3--------1--4-----------3----|
|-------------------1--4-----1-|


Tap to rate this tab
 
# A B C D E F G H I J K L M N O P Q R S T U V W X Y Z