Song name
# A B C D E F G H I J K L M N O P Q R S T U V W X Y Z

Syd Barrett - Terrapin tab

Ok, this is the all acoustic version of Terrapin that David Gilmour played live at the 
Concert.
The video is on YouTube so you can look at that to see how he does it.

For some of the chords he uses basically half of a standard bar cord to free up his 
for a
little lick he does with a few of them.  Here's how all the chords look:

E   022100
G   xx5433
A   xx7644
D   xx0775
E   x7675x
C   xx10988
G#  xx6544
A#  xx8766

Here's how it goes.  The muted notes shown as x's can vary as you can play the song throwing
them on various beats, so don't focus on exactly how I have it typed out.  Like I said look
up the video of David Gilmour doing this on YouTube to see how he does it. Enjoy!
Its really not that hard at all.

         E               G                  E              G
        I really..     and I mean you..     The star..      crystal
e ------0-4-0-2-0---x---5-3-x-3-3-3-x--------0-4-0-2-0---x---5-3-x-----|
B ------0-0-0-0-0---x---3-3-x-5-5-5-x--------0-0-0-0-0---x---3-3-x-----|
G ------1-1-1-1-1---x---4-4-x-4-4-4-x--------1-1-1-1-1---x---4-4-x-----|
D -1/2--2-2-x-x-x---x---5-5-x-5-5-5-x---1/2--2-2-x-x-x---x---5-5-x-----|
A -1/2--2-2-2-2-2---x---x-x-x-x-x-x-x---1/2--2-2-2-2-2---x---x-x-x-----|
E ------0-0-0-0-0---x---x-x-x-x-x-x-x--------0-0-0-0-0---x---x-x-x-----|

   A          D          E        A                   C    G
  blue..      Oh baby..  hairs.. you.
e -5-5--5-5-x--(5)------(x)------5-5-7-5-5-5--5----x-8----3------------|
B -5-5--5-5-x--(7)------(5)------5-5-5-5-7-5--5----x-8----3------------|
G -6-6--6-6-x--(7)------(7)------6-6-6-6-6-6--6----x-9----4------------|
D -7-7--7-7-x--(0)------(6)------7-7-7-7-7-7--7----x-10---5------------|
A -x-x--x-x-x--(x)------(7)------x-x-x-x-x-x--x----x-x----x------------|
E -x-x--x-x-x--(x)------(x)------x-x-x-x-x-x--x----x-x----x------------|

        E               G                  E              G
        I wouldn't..    and I love to..     I fly..          yes I
e ------0-4-0-2-0---x---5-3-x-3-3-3-x--------0-4-0-2-0---x---5-3-x-----|
B ------0-0-0-0-0---x---3-3-x-5-5-5-x--------0-0-0-0-0---x---3-3-x-----|
G ------1-1-1-1-1---x---4-4-x-4-4-4-x--------1-1-1-1-1---x---4-4-x-----|
D -1/2--2-2-x-x-x---x---5-5-x-5-5-5-x---1/2--2-2-x-x-x---x---5-5-x-----|
A -1/2--2-2-2-2-2---x---x-x-x-x-x-x-x---1/2--2-2-2-2-2---x---x-x-x-----|
E ------0-0-0-0-0---x---x-x-x-x-x-x-x--------0-0-0-0-0---x---x-x-x-----|

   A            D        E       A                    C   G   G#
  do..        Well oh.. hairs.. you.
e -5-5--5-5-x--(5)------(x)------5-5-7-5-5-5--5-----x-8---3---4--------|
B -5-5--5-5-x--(7)------(5)------5-5-5-5-7-5--5-----x-8---3---4--------|
G -6-6--6-6-x--(7)------(7)------6-6-6-6-6-6--6-----x-9---4---5--------|
D -7-7--7-7-x--(0)------(6)------7-7-7-7-7-7--7-----x-10--5---6--------|
A -x-x--x-x-x--(x)------(7)------x-x-x-x-x-x--x-----x-x---x---x--------|
E -x-x--x-x-x--(x)------(x)------x-x-x-x-x-x--x-----x-x---x---x--------|

    A                 C  G   A#  E     A          C         G     E
   floating.. luminous                Fangs..  sunlight's.. us.
e -(5)----------------8--3----6--x----(5)--------(8)--------3-----x----|
B -(5)----------------8--3----6--5----(5)--------(8)--------3-----5----|
G -(6)----------------9--4----7--7----(6)--------(9)--------4-----7----|
D -(7)----------------10-5----8--6----(7)--------(10)-------5-----6----|
A -(x)----------------x--x----x--7----(x)--------(x)--------x-----7----|
E -(x)----------------x--x----x--x----(x)--------(x)--------x-----x----|

         E               G                   E              G
        Cus were..      and all we do..     The move about.. all we
e ------0-4-0-2-0---x---5-3-x-3-3-3-x--------0-4-0-2-0---x---5-3-x-----|
B ------0-0-0-0-0---x---3-3-x-5-5-5-x--------0-0-0-0-0---x---3-3-x-----|
G ------1-1-1-1-1---x---4-4-x-4-4-4-x--------1-1-1-1-1---x---4-4-x-----|
D -1/2--2-2-x-x-x---x---5-5-x-5-5-5-x---1/2--2-2-x-x-x---x---5-5-x-----|
A -1/2--2-2-2-2-2---x---x-x-x-x-x-x-x---1/2--2-2-2-2-2---x---x-x-x-----|
E ------0-0-0-0-0---x---x-x-x-x-x-x-x--------0-0-0-0-0---x---x-x-x-----|

   A            D        E       A                    C   G
  do..        Well oh.. hairs.. you.
e -5-5--5-5-x--(5)------(x)------5-5-7-5-5-5--5-----x-8---3-----------|
B -5-5--5-5-x--(7)------(5)------5-5-5-5-7-5--5-----x-8---3-----------|
G -6-6--6-6-x--(7)------(7)------6-6-6-6-6-6--6-----x-9---4-----------|
D -7-7--7-7-x--(0)------(6)------7-7-7-7-7-7--7-----x-10--5----1/2----|
A -x-x--x-x-x--(x)------(7)------x-x-x-x-x-x--x-----x-x---x----1/2----|
E -x-x--x-x-x--(x)------(x)------x-x-x-x-x-x--x-----x-x---x-----------|

Solo: he basically plays the same stuff as before but adds a few little licks in there
instead of the regular chords.  You should be able to figure out the rest, he just goes
through the first verse again and then ends strumming the A.

Thanks!
Tap to rate this tab
 
# A B C D E F G H I J K L M N O P Q R S T U V W X Y Z