Guitaretab - guitar tabs
Song name
# A B C D E F G H I J K L M N O P Q R S T U V W X Y Z

Syd - Heres A Love Song tab

|-------------------------------------------------------------------------------
			     Here's a Love Song - SYD
-------------------------------------------------------------------------------
Tabbed by: Chris M
Email: nevermind1289@yahoo.com

http://www.sydband.com/

Lemme tell you this song's a pain to tab.  But I hadn't seen anything else on the
internet about how to play it, so I decided it was time to do it myself.  This
accurate except for a few spots (I'll mark them with a *).  This is an awesome song
and it's a lot of fun to play, so enjoy

Two guitars is optional on this.  You just need one to play harmonics during some
parts.

Tuning: Both (Standard) EADGBE

Intro/Verse		         Let it ring		  
Guitar 1		     *  /		       x  x
e|-3<--1sttime----7--7--3------3---|-------------------7--7--3---------------|
B|-----------3s8-------------3-----|--------------3s8------------------------|
G|----0--0--------0--0-----0------o|X3-----0--0--------0--0------------------|
D|---------0----------------------o|------------0----------------------------|
A|----------------------3----------|-------------------------3---------------|
E|-0-------------------------------|----0------------------------------------|
[ Tab from: http://www.guitaretab.com/s/syd/67406.html ]
Chorus
Guitar 1
e|-7-----7-----5-----5-----5-----5-----3-----3------|---3------2-------------|
B|--------------------------------------------------|------------------------|
G|----0-----0-----0-----0-----0-----0-----0-----0--o|------------------------|
D|-0-----0-----------------------------------------o|------------------------|
A|-------------3-----3-----5-----5-----3-----3------|---3------2-------------|
E|--------------------------------------------------|------------------------|

Slide (go slow)
Guitar 1
e|-------------|
B|-------------|
G|-------------|
D|-------------|
A|-------------|
E|-0--s--10----|

Verse
Guitar 2 
   +  +  +     +  +    +  +    +  +      +  +  +     +  +    +  +  +
e|-------------------------------------|-------------------------------------|
B|-------12----12---------12---12------|-------12----12---------12-----------|
G|-12-------------12---12---------12--o|-12-------------12---12----12--------|
D|----12------------------------------o|----12-------------------------------|
A|-------------------------------------|-------------------------------------|
E|-------------------------------------|-------------------------------------|

Guitar 1           Guitar 2
Intro/Verse x3
Chorus x1
Intro/Verse x3     Verse
Chorus x1
Intro/Verse x3     Verse
Slide
Chorus
Intro/Verse x2     Verse


It's not quite complete.  The second guitar's not that important.  It plays some
different stuff later on, but you can't hear much difference.  And good luck with
the singing while you play it.  Email any corrections.


| /  slide up
| \  slide down
| h  hammer-on
| p  pull-off
| ~  vibrato
| +  harmonic
| x  Mute note
===============================================================================