Song name
# A B C D E F G H I J K L M N O P Q R S T U V W X Y Z

Sydney - Seething tab

-------------------------------------------------------------------------------
			     SEETHING - Sydney
-------------------------------------------------------------------------------
Tabbed by: AutumnReprieve
Email: AutumnReprieve@hotmail.com

Tuning: Drop D

there is more to come, i just get bored easily while tabbing out songs. i thought the 
was pretty sweet, and no one had tabbed it out yet so here goes...

INTRO:

Rhythm:
e|------------------------------|
B|------------------------------|
G|------------------------------|     X2
D|-0-0--------------------------|
A|-0-0--------------------------|
E|-0-0--------------------------|

Lead:
e|------------------------------------|
B|------------------------------------|
G|------------------------------------|    X2
D|-------2h3-------------3p2----------|
A|-----------0-3h5-0-3h5----3~--------|
E|-0-0-0------------------------------|
             .          .          .

Rhythm:
e|------------------------------|
B|------------------------------|
G|------------------------------|     X2
D|-3-3--------------------------|
A|-3-3--------------------------|
E|-3-3--------------------------|

Lead:
e|------------------------------------|
B|------------------------------------|
G|------------------------------------|    X2
D|-------2h3-------------3p2----------|
A|-----------0-3h5-0-3h5----3~--------|
E|-3-3-0------------------------------|
             .          .          .


| /  slide up
| \  slide down
| h  hammer-on
| p  pull-off
| ~  vibrato
| +  harmonic
| x  Mute note
===============================================================================
Tap to rate this tab
# A B C D E F G H I J K L M N O P Q R S T U V W X Y Z