Song name
# A B C D E F G H I J K L M N O P Q R S T U V W X Y Z

Sydney - Got Some Purple Stuff Hey Sunny D tab

Help us improve GuitareTab! Take a short survey!
This is my first tab ever... i've been waiting for this song to be tabbed for so long
since its a great song from an amazing band, but i guess i will have to take the first
stab at it. The intro is very close, judging from seeing them live and the sound of the
song, altho i think they are tracking more than 2 guitars at parts so it may sound a bit
off. but this is what jay and brent play as far as i can tell.

tuning: Drop D

Lead:
e|-----------------------------------------------------|
B|---10-------9-------9--12------10-------9h10--9------|
G|------9-------9-----------9-------9--------------9---|     this is pretty 
D|--------11------11----------11------11---------------| x2  close, it may be
A|-9---------------------------------------------------|     a few notes off
D|-----------------------------------------------------|  


e|--------------------------------------------------|
B|---9-----------9----------10---------10-------10--|    then theres a change 
G|------9-----------9-----------11--------11--------|    something like this
D|---------11----------11----------11--------11-----|
A|--------------------------------------------------|
D|--------------------------------------------------|


e|-----------------------------------------------------|
B|---10-------9-------9--12------10-------9h10--9------|
G|------9-------9-----------9-------9--------------9---|     
D|--------11------11----------11------11---------------|  x2   
A|-9---------------------------------------------------|     
D|-----------------------------------------------------|


e|-----------------------||-----------------------------||
B|---9-----9-----5----5--||--9---9----10---10---9---9---||
G|-----9-----9-----6----6||----9---9-----9----9---9---9-||   x2     
D|-----------------------||-----------------------------||     
A|-----------------------||-----------------------------||     
D|-----------------------||-----------------------------||


e|--------|
B|-10~----|
G|--------|
D|--------|    
A|--------|    
D|--------|


Rhythm:

e|--------------------------------------------------|
B|--------------------------------------------------|
G|-11-11-11-11-12-12-12-12-16-16-16-16-12-12-12-12--|   x6     
D|--x--x--x--x--x--x--x--x--x--x--x--x--x--x--x--x--|     
A|--9--9--9--9-10-10-10-10-14-14-14-14-10-10-10-10--|     
D|--------------------------------------------------| 


Lead:

e||-----------------------||
B||--9-9-9-9-10-10-10-10--||
G||--7-7-7-7--7--7--7--7--||   x 2           --
D||--7-7-7-7--7--7--7--7--||                    \
A||-----------------------||                    |
D||-----------------------||                    |
                                                |
e||-------------------------||                  |         
B||-9--9--9--9--10-10-10-10-||                  |
G||-11-11-11-11-11-11-11-11-||   x 2            |
D||-11-11-11-11-11-11-11-11-||                   > Repeat This whole thing 
A||-------------------------||                  |  twice
D||-------------------------||                  |
                                                |
e||-----------------------||                    |
B||--9-9-9-9-10-10-10-10--||                    |
G||--9-9-9-9--9--9--9--9--||   x 2              |
D||--9-9-9-9--9--9--9--9--||                    |
A||-----------------------||                    |
D||-----------------------||                    |
                                                |
e||-----------------------||                    |
B||--9-9-9-9-10-10-10-10--||                    |
G||--7-7-7-7--7--7--7--7--||   x 2              /
D||--7-7-7-7--7--7--7--7--||                 --        
A||-----------------------||                    
D||-----------------------||           except on 2nd time replace 
                                                  this...

e|-----------------------------|
B|--10---10-10-10-9--9-9-9-----|
G|--7----7--7--7--9--9-9-9-11~-|   with this
D|--7----7--7--7--9--9-9-9-11~-|                    
A|-----------------------------|                    
D|-----------------------------|

  



well thats all i got so far.. please note this is just a rough tab and not meant to be
taken as the finished product, comments and improvements are encouraged




Related for Got Some Purple Stuff Hey Sunny D tab