Guitaretab - guitar tabs
Song name
# A B C D E F G H I J K L M N O P Q R S T U V W X Y Z

Sydonia - No Womans Land tab

-------------------------------------------------------------------------------
			     NO WOMAN'S LAND - Sydonia
-------------------------------------------------------------------------------
Tabbed by: Xak
Email: cateringtocowards@gmail.com

Tuning: Drop C

Verse (Guitar 1/Dana):
D|---------------------------------------------------------------|
A|---12-12---12-12---12---12-12-----7-7---7-7---7---7-7---7-7----|
F|---------------------------------------------------------------|
C|-9-------9-------9----9-------9\5-----5-----5---5-----5-----5\-|
G|---------------------------------------------------------------|
C|---------------------------------------------------------------| x4
[ Tab from: http://www.guitaretab.com/s/sydonia/181489.html ]
Chorus (Both Guitars)
D|--------------------------------|
A|--------------------------------|
F|-----------------4--4--4-4--4---|
C|-5--5--5-5--5--5-4--4--4-4--4-4-|
G|-5--5--5-5--5--5-2--2--2-2--2-4-|
C|-5--5--5-5--5--5--------------4-| x4

Guitar 1 plays Verse x4

Verse 2 (Guitar 2/Sam):
D|---------------------------------------------------------------|
A|-12-----------------------------7------------------------------|
F|-X------------------------------X------------------------------|
C|-9------------------------------5------------------------------|
G|---------------------------------------------------------------|
C|---------------------------------------------------------------| x2

Guitar 2 comes in on last 2 repetitions.

Chorus x8

Offical Website: http://www.sydonia.com.au/

| /  slide up
| \  slide down
| h  hammer-on
| p  pull-off
| ~  vibrato
| +  harmonic
| x  Mute note
===============================================================================
Related for No Womans Land tab