Song name
# A B C D E F G H I J K L M N O P Q R S T U V W X Y Z

Sydonia - Adornment tab

SYDONIA
Adornment - Tabbed By Brooke

Drop C tuning - FADCGC

Intro
-------|-------|
-------|-------|
-------|-------|
-----8-|-----5-|
-------|-------|
-6-6---|-3-3---|


Bridge
-----------|------------|
-----------|------------|
-----------|------------|
-----5-6-5-|-----8-10-8-|
-----------|------------|
-3-3-------|-6-6--------|x2

verse 1
-3-|-6-|
-6-|-9-|
-5-|-8-|
-3-|-6-|
-3-|-6-|
---|---|x4

------------------|
------------------|
------------------|
------------------|
---8-8-7---5-5-3--|
-0-------0--------|x5


Bridge x 5

(from here is all just a mix of this stuff below, im sure you can figure out which goes 
for which :)

---------------------------|
---------------------------|
---------------------------|
-3-3-3-3-3-3-3-6-6-6-6-6-6-|
-3-3-3-3-3-3-3-6-6-6-6-6-6-|
-3-3-3-3-3-3-3-6-6-6-6-6-6-| x2

--------------------------|
--------------------------|
--------------------------|
-0-0-0-----0-0-0----------|
-0-0-0-----0-0-0----------|
-0-0-0-----0-0-0----------|


------------------------------|
------------------------------|
------------------------------|
-3-3-3--6--3-3-3--6--3-3-3--6-|
-3-3-3-----3-3-3-----3-3-3----|
-3-3-3-----3-3-3-----3-3-3----|
Tap to rate this tab
 
# A B C D E F G H I J K L M N O P Q R S T U V W X Y Z