Guitaretab - guitar tabs
Song name
# A B C D E F G H I J K L M N O P Q R S T U V W X Y Z
Home / S / Sylosis / Teras tab

Sylosis - Teras tab

-------------------------------------------------------------------------------
			     TERAS - sylosis
-------------------------------------------------------------------------------
Tabbed by: kiran
Email: sk8inrocks_4life@hotmail.com

Tuning: e standard
[ Tab from: http://www.guitaretab.com/s/sylosis/118211.html ]
e|--19p15------------------15h1924u19------19h24p19------19h24----------------|
B|--------17--------------17---------20---20-------20--20---------------------|
G|----------16----------16-------------21------------21-----------------------|
D|------------17------17------------------------------------------------------|
A|--------------19p14---------------------------------------------------------|
E|----------------------------------------------------------------------------|
T                                        T                                     T
e|-18p14------------------14h181918p14------14h181918p14-----14h1819----------|
B|-------16--------------16--------------16--16---------16--16----------------|
G|---------15----------15------------------17-------------17------------------|
D|-----------16------16-------------------------------------------------------|
A|-------------18p11----------------------------------------------------------|
E|----------------------------------------------------------------------------|

X2

| /  slide up
| \  slide down
| h  hammer-on
| p  pull-off
| ~  vibrato
| +  harmonic
| x  Mute note
===============================================================================
Related for Teras tab