Song name
# A B C D E F G H I J K L M N O P Q R S T U V W X Y Z

Sylosis - Conclusion Of An Age tab

-------------------------------------------------------------------------------------------------
			                                   Conclusion Of An Age - sylosis
-------------------------------------------------------------------------------------------------
Tabbed by: kyron brook

Email: kyron-tbdm@hotmail.co.uk

Tuning: standard E

this is what i have come up with, it sounds right to me so...
let me know what you think of it :)
if you want more of the song just ask me for it through email :)

both
e|--------------------------------------------------------------------------|
B|--------------------------------------------------------------------------|
G|-------5------------------------------------------------------------------|
D|-2--6--5------3--7--6--3--6--2--------------------------------------------|
A|-2--6--3------3--7--6--3--6--2--------------------------------------------|
E|-0--4---------1--5--4--1--4--0--------------------------------------------|

e|--------------------------------------------------------------------------|
B|--------------------------------------------------------------------------|
G|--------------------------------------------------------------------------|
D|-2-2-2-2-2-2-2------------------------------------------------------------|
A|-2-2-2-2-2-2-2------------------------------------------------------------|
E|-0-0-0-0-0-0-0------------------------------------------------------------|
   * * * * * * *

rythm
e|--------------------------------------------------------------------------| x2
B|--------------------------------------------------------------------------|
G|-------5------------------------------------------------------------------|
D|-2--6--5------3--7--6--3--6--2--------------------------------------------|
A|-2--6--3------3--7--6--3--6--2--------------------------------------------|
E|-0--4---------1--5--4--1--4--0--------------------------------------------|

lead
e|--------------------------------------------------------------------------|
B|--------------------------------------------------------------------------|
G|--------------------------------------------------------------------------|
D|---6-7-9-7-6-10--------------------2-2-2-2-2-2-2--------------------------|
A|-7-----------------3-3/7-5-3-5-2---2-2-2-2-2-2-2--------------------------|
E|-----------------------------------0-0-0-0-0-0-0--------------------------|
                                     * * * * * * *
e|--------------------------------------------------------------------------|
B|--------------------------------------------------------------------------|
G|--------------------------------------------------------------------------|
D|---6-7-9-7-6-10--------------------2-2-2-2--------------------------------|
A|-7-----------------3-3/7-5-3-5-2---2-2-2-2---(3)--------------------------|
E|-----------------------------------0-0-0-0--------------------------------|


| /  slide up
| \  slide down
| h  hammer-on
| p  pull-off
| ~  vibrato
| ()  harmonic
| * Mute note
===============================================================================
Tap to rate this tab
 
# A B C D E F G H I J K L M N O P Q R S T U V W X Y Z