Song name
# A B C D E F G H I J K L M N O P Q R S T U V W X Y Z

Sylosis - Oath Of Silence tab

            Oath Of Silence
                Tabs
          Standard Tuning
e|-------------------------------------|---------------------------------------|
b|-------------------------------------|---------------------------------------|
g|-------------------------------------|---------------------------------------|
D|-------------------------------------|---------------------------------------|
A|-2--------6------------10-9-7--9-7---|2--------6-----------------------------|
E|-0--5-7-8---8-7-0-0-0--------------11|0--5-7-8---8-7-0-0-0--7-0-5b-0-0-3-2b--|

e|---------------------------------------------------------|
b|---------------------------------------------------------|
g|---------------------------------------------------------|
D|---------------------------------------------------------|
A|-------7-------9-------10-------9-------7-------9-------6|
E|---7-7---7-7-7---7-7-7----7-7-7---7-7-7---7-7-7---7-7-7--|

e|-------------------------|---------|---------|---------------------|
b|-------------------------|---------|---------|---------------------|
g|-------------------------|---------|---------|---------------------|
D|-------------------------|-------4b|---------|---------------------|
A|-------7-------9-------10|---------|-------7b|---------------------|
E|-8-8-8---8-8-8---8-8-8---|-3-3-3---|-2-2-2---|0-0-0-0-0---0-0-0-0-0|

e|---------------------------------|------------------------|
b|---------------------------------|------------------------|
g|---------------------------------|------------------------|
D|---------------------------------|------------------------|
A|-10---------9---------7---------6|------------------------|
E|----0-0-0-0---0-0-0-0---0-0-0-0--|-7-7-7-7-7--3-3-3--2-2-2|

           This Is All I Know
Tap to rate this tab
# A B C D E F G H I J K L M N O P Q R S T U V W X Y Z