Song name
# A B C D E F G H I J K L M N O P Q R S T U V W X Y Z

Sylosis - From The Edge Of The Earth tab

hOPE YOU LIKE IT :)

STANDARD TUNING :)

E|------------8-8--7---------|
B|-------8-8-----------------|
G|--------------------9------|
D|---------------------------|
A|---------------------------|
E|---------------------------|


E|------7------------------|
B|----------8--------------|
G|--------------9----------|
D|-------------------------|
A|-------------------------|
E|-------------------------|

E|---7----------------------|
B|--------------10----------|
G|----------9---------------|
D|--------------10----------|
A|----------9---------------|
E|--------------------------|

E|---------------8-8---7-5/7----|
B|----------8-8-----------------|
G|------------------------------|
D|------------------------------|
A|------------------------------|
E|------------------------------|


E|------------8-8--7---------|
B|-------8-8-----------------|
G|--------------------9------|
D|---------------------------|
A|---------------------------|
E|---------------------------|

E|------7------------------|
B|----------8--------------|
G|--------------9----------|
D|-------------------------|
A|-------------------------|
E|-------------------------|

E|---7----------------------|
B|--------------10----------|
G|----------9---------------|
D|--------------10----------|
A|----------9---------------|
E|--------------------------|
Tap to rate this tab
# A B C D E F G H I J K L M N O P Q R S T U V W X Y Z