Song name
# A B C D E F G H I J K L M N O P Q R S T U V W X Y Z

Sylosis - Conclusion Of An Age tab

I couldn't find the outro solo to this song
anywhere so i decided to make it myself.
It's my first tab so it's nothing special.
I was kind of hoping someone more experienced could
correct the mistakes and/or even put it on GP if they'd want.

It's just the numbers..
If you know the song, you'll know when to slide down,
sweep, vibrate, bend etc.
It's mostly for people who have no idea where to begin.

4:51 - 4:53
D-------9-12-9--------9-12-9-------------------------------------|
A----10--------9-10-9--------------------------------------------|
F--11------------------------------------------------------------|
C----------------------------------------------------------------|
G----------------------------------------------------------------|
C----------------------------------------------------------------|

4:53 - 4:57
D------------------17-19-17---------------------------------------------|
A----------------17---------17------------12-13-12----12-13-15-13-12-13-|
F-----------14-17--------------17-14-12-14--------14--------------------|
C-------15--------------------------------------------------------------|
G----19-----------------------------------------------------------------|
C-----------------------------------------------------------------------|


4:57 - 5:04
D--17-19---17-16-------19-21-19-----------------------------------------|
A----------------19-14--------------------------------------------------|
F-----------------------------------16-----17------19------21-----------|
C-----------------------------------------------------------------------|
G---------------------------------14--14-15---15-17---17-19---19-22-----|
C-----------------------------------------------------------------------|

5:04 - 5:14
(full bend the first '24')
D-24-24-22-21-------------------------------------------------10-12--12-------|
A------------22-19-19--19-20-19--19-17--12-13-12--13-12-8-9--------12---12-14-|
F------------------------------19---------------14----------------------------|
C-----------------------------------------------------------------------------|
G-----------------------------------------------------------------------------|
C-----------------------------------------------------------------------------|

5:14 - 5:20
D-------------------------17-19-20-19-17-19--21-------------------|
A----------------------17-----------------------------------------|
F-----16-17-16---16-17--------------------------------------------|
C---19--------19--------------------------------------------------|
G-20--------------------------------------------------------------|
C-----------------------------------------------------------------|
Tap to rate this tab
 
# A B C D E F G H I J K L M N O P Q R S T U V W X Y Z